ISO-10303-21;
HEADER;
FILE_DESCRIPTION( ( 'STEP AP214' ), ' ' );
FILE_NAME( 'C:/Users/Administrator.PC-20161113MDTN/Desktop/\X2\87BA7EB987BA6813\X0\/\X2\87BA7EB9680751C64EF6\X0\/\X2\5185516D89D27D275B9A87BA9489\X0\/\X2\51F97AEF\X0\/\X2\51F97AEF5185516D89D27D275B9A87BA9489\X0\/PSEP-4-4-A.stp', '2019-07-03T05:21:31', ( '' ), ( '' ), ' ', 'PARTsolutions', ' ' );
FILE_SCHEMA( ( 'AUTOMOTIVE_DESIGN { 1 0 10303 214 1 1 1 1 }' ) );
ENDSEC;
DATA;
#1 = MECHANICAL_DESIGN_GEOMETRIC_PRESENTATION_REPRESENTATION( ' ', ( #10, #11, #12, #13, #14, #15, #16, #17, #18, #19, #20, #21, #22 ), #6 );
#2 = PRODUCT_DEFINITION_CONTEXT( '', #23, 'design' );
#3 = APPLICATION_PROTOCOL_DEFINITION( 'international standard', 'automotive_design', 2001, #23 );
#4 = PRODUCT_CATEGORY_RELATIONSHIP( 'NONE', 'NONE', #24, #25 );
#5 = SHAPE_DEFINITION_REPRESENTATION( #26, #27 );
#6 =  ( GEOMETRIC_REPRESENTATION_CONTEXT( 3 )GLOBAL_UNCERTAINTY_ASSIGNED_CONTEXT( ( #30 ) )GLOBAL_UNIT_ASSIGNED_CONTEXT( ( #32, #33, #34 ) )REPRESENTATION_CONTEXT( 'NONE', 'WORKSPACE' ) );
#10 = STYLED_ITEM( '', ( #36 ), #37 );
#11 = STYLED_ITEM( '', ( #38 ), #39 );
#12 = STYLED_ITEM( '', ( #40 ), #41 );
#13 = STYLED_ITEM( '', ( #42 ), #43 );
#14 = STYLED_ITEM( '', ( #44 ), #45 );
#15 = STYLED_ITEM( '', ( #46 ), #47 );
#16 = STYLED_ITEM( '', ( #48 ), #49 );
#17 = STYLED_ITEM( '', ( #50 ), #51 );
#18 = STYLED_ITEM( '', ( #52 ), #53 );
#19 = STYLED_ITEM( '', ( #54 ), #55 );
#20 = STYLED_ITEM( '', ( #56 ), #57 );
#21 = STYLED_ITEM( '', ( #58 ), #59 );
#22 = STYLED_ITEM( '', ( #60 ), #61 );
#23 = APPLICATION_CONTEXT( 'core data for automotive mechanical design processes' );
#24 = PRODUCT_CATEGORY( 'part', 'NONE' );
#25 = PRODUCT_RELATED_PRODUCT_CATEGORY( 'detail', ' ', ( #62 ) );
#26 = PRODUCT_DEFINITION_SHAPE( 'NONE', 'NONE', #63 );
#27 = ADVANCED_BREP_SHAPE_REPRESENTATION( '_PSEP-4-4-A', ( #64, #65 ), #6 );
#30 = UNCERTAINTY_MEASURE_WITH_UNIT( LENGTH_MEASURE( 0.00100000000000000 ), #32, '', '' );
#32 =  ( CONVERSION_BASED_UNIT( 'MILLIMETRE', #68 )LENGTH_UNIT(  )NAMED_UNIT( #71 ) );
#33 =  ( NAMED_UNIT( #73 )PLANE_ANGLE_UNIT(  )SI_UNIT( $, .RADIAN. ) );
#34 =  ( NAMED_UNIT( #73 )SI_UNIT( $, .STERADIAN. )SOLID_ANGLE_UNIT(  ) );
#36 = PRESENTATION_STYLE_ASSIGNMENT( ( #79 ) );
#37 = ADVANCED_FACE( '', ( #80, #81 ), #82, .F. );
#38 = PRESENTATION_STYLE_ASSIGNMENT( ( #83 ) );
#39 = ADVANCED_FACE( '', ( #84, #85 ), #86, .T. );
#40 = PRESENTATION_STYLE_ASSIGNMENT( ( #87 ) );
#41 = ADVANCED_FACE( '', ( #88 ), #89, .T. );
#42 = PRESENTATION_STYLE_ASSIGNMENT( ( #90 ) );
#43 = ADVANCED_FACE( '', ( #91, #92 ), #93, .T. );
#44 = PRESENTATION_STYLE_ASSIGNMENT( ( #94 ) );
#45 = ADVANCED_FACE( '', ( #95, #96 ), #97, .F. );
#46 = PRESENTATION_STYLE_ASSIGNMENT( ( #98 ) );
#47 = ADVANCED_FACE( '', ( #99 ), #100, .F. );
#48 = PRESENTATION_STYLE_ASSIGNMENT( ( #101 ) );
#49 = ADVANCED_FACE( '', ( #102, #103 ), #104, .F. );
#50 = PRESENTATION_STYLE_ASSIGNMENT( ( #105 ) );
#51 = ADVANCED_FACE( '', ( #106 ), #107, .T. );
#52 = PRESENTATION_STYLE_ASSIGNMENT( ( #108 ) );
#53 = ADVANCED_FACE( '', ( #109 ), #110, .T. );
#54 = PRESENTATION_STYLE_ASSIGNMENT( ( #111 ) );
#55 = ADVANCED_FACE( '', ( #112 ), #113, .T. );
#56 = PRESENTATION_STYLE_ASSIGNMENT( ( #114 ) );
#57 = ADVANCED_FACE( '', ( #115, #116 ), #117, .T. );
#58 = PRESENTATION_STYLE_ASSIGNMENT( ( #118 ) );
#59 = ADVANCED_FACE( '', ( #119 ), #120, .T. );
#60 = PRESENTATION_STYLE_ASSIGNMENT( ( #121 ) );
#61 = ADVANCED_FACE( '', ( #122 ), #123, .T. );
#62 = PRODUCT( '_PSEP-4-4-A', '_PSEP-4-4-A', 'PART-_PSEP-4-4-A-DESC', ( #124 ) );
#63 = PRODUCT_DEFINITION( 'NONE', 'NONE', #125, #2 );
#64 = MANIFOLD_SOLID_BREP( '_PSEP-4-4-A', #126 );
#65 = AXIS2_PLACEMENT_3D( '', #127, #128, #129 );
#68 = LENGTH_MEASURE_WITH_UNIT( LENGTH_MEASURE( 1.00000000000000 ), #130 );
#71 = DIMENSIONAL_EXPONENTS( 1.00000000000000, 0.000000000000000, 0.000000000000000, 0.000000000000000, 0.000000000000000, 0.000000000000000, 0.000000000000000 );
#73 = DIMENSIONAL_EXPONENTS( 0.000000000000000, 0.000000000000000, 0.000000000000000, 0.000000000000000, 0.000000000000000, 0.000000000000000, 0.000000000000000 );
#79 = SURFACE_STYLE_USAGE( .BOTH., #131 );
#80 = FACE_BOUND( '', #132, .T. );
#81 = FACE_OUTER_BOUND( '', #133, .T. );
#82 = PLANE( '', #134 );
#83 = SURFACE_STYLE_USAGE( .BOTH., #135 );
#84 = FACE_OUTER_BOUND( '', #136, .T. );
#85 = FACE_OUTER_BOUND( '', #137, .T. );
#86 = CYLINDRICAL_SURFACE( '', #138, 2.00000000000000 );
#87 = SURFACE_STYLE_USAGE( .BOTH., #139 );
#88 = FACE_OUTER_BOUND( '', #140, .T. );
#89 = PLANE( '', #141 );
#90 = SURFACE_STYLE_USAGE( .BOTH., #142 );
#91 = FACE_BOUND( '', #143, .T. );
#92 = FACE_OUTER_BOUND( '', #144, .T. );
#93 = CONICAL_SURFACE( '', #145, 2.00000000000000, 0.785398163398386 );
#94 = SURFACE_STYLE_USAGE( .BOTH., #146 );
#95 = FACE_BOUND( '', #147, .T. );
#96 = FACE_OUTER_BOUND( '', #148, .T. );
#97 = CONICAL_SURFACE( '', #149, 1.00000000000000, 1.04719755119658 );
#98 = SURFACE_STYLE_USAGE( .BOTH., #150 );
#99 = FACE_OUTER_BOUND( '', #151, .T. );
#100 = PLANE( '', #152 );
#101 = SURFACE_STYLE_USAGE( .BOTH., #153 );
#102 = FACE_OUTER_BOUND( '', #154, .T. );
#103 = FACE_BOUND( '', #155, .T. );
#104 = PLANE( '', #156 );
#105 = SURFACE_STYLE_USAGE( .BOTH., #157 );
#106 = FACE_OUTER_BOUND( '', #158, .T. );
#107 = PLANE( '', #159 );
#108 = SURFACE_STYLE_USAGE( .BOTH., #160 );
#109 = FACE_OUTER_BOUND( '', #161, .T. );
#110 = PLANE( '', #162 );
#111 = SURFACE_STYLE_USAGE( .BOTH., #163 );
#112 = FACE_OUTER_BOUND( '', #164, .T. );
#113 = PLANE( '', #165 );
#114 = SURFACE_STYLE_USAGE( .BOTH., #166 );
#115 = FACE_OUTER_BOUND( '', #167, .T. );
#116 = FACE_BOUND( '', #168, .T. );
#117 = CONICAL_SURFACE( '', #169, 1.57050000000000, 0.785398163397352 );
#118 = SURFACE_STYLE_USAGE( .BOTH., #170 );
#119 = FACE_OUTER_BOUND( '', #171, .T. );
#120 = PLANE( '', #172 );
#121 = SURFACE_STYLE_USAGE( .BOTH., #173 );
#122 = FACE_OUTER_BOUND( '', #174, .T. );
#123 = PLANE( '', #175 );
#124 = PRODUCT_CONTEXT( '', #23, 'mechanical' );
#125 = PRODUCT_DEFINITION_FORMATION_WITH_SPECIFIED_SOURCE( ' ', 'NONE', #62, .NOT_KNOWN. );
#126 = CLOSED_SHELL( '', ( #57, #49, #51, #47, #59, #61, #41, #55, #53, #45, #37, #43, #39 ) );
#127 = CARTESIAN_POINT( '', ( 0.000000000000000, 0.000000000000000, 0.000000000000000 ) );
#128 = DIRECTION( '', ( 0.000000000000000, 0.000000000000000, 1.00000000000000 ) );
#129 = DIRECTION( '', ( 1.00000000000000, 0.000000000000000, 0.000000000000000 ) );
#130 =  ( LENGTH_UNIT(  )NAMED_UNIT( #71 )SI_UNIT( .MILLI., .METRE. ) );
#131 = SURFACE_SIDE_STYLE( '', ( #177 ) );
#132 = EDGE_LOOP( '', ( #178 ) );
#133 = EDGE_LOOP( '', ( #179 ) );
#134 = AXIS2_PLACEMENT_3D( '', #180, #181, #182 );
#135 = SURFACE_SIDE_STYLE( '', ( #183 ) );
#136 = EDGE_LOOP( '', ( #184 ) );
#137 = EDGE_LOOP( '', ( #185 ) );
#138 = AXIS2_PLACEMENT_3D( '', #186, #187, #188 );
#139 = SURFACE_SIDE_STYLE( '', ( #189 ) );
#140 = EDGE_LOOP( '', ( #190, #191, #192, #193 ) );
#141 = AXIS2_PLACEMENT_3D( '', #194, #195, #196 );
#142 = SURFACE_SIDE_STYLE( '', ( #197 ) );
#143 = EDGE_LOOP( '', ( #198 ) );
#144 = EDGE_LOOP( '', ( #199 ) );
#145 = AXIS2_PLACEMENT_3D( '', #200, #201, #202 );
#146 = SURFACE_SIDE_STYLE( '', ( #203 ) );
#147 = VERTEX_LOOP( '', #204 );
#148 = EDGE_LOOP( '', ( #205 ) );
#149 = AXIS2_PLACEMENT_3D( '', #206, #207, #208 );
#150 = SURFACE_SIDE_STYLE( '', ( #209 ) );
#151 = EDGE_LOOP( '', ( #210, #211, #212, #213, #214, #215 ) );
#152 = AXIS2_PLACEMENT_3D( '', #216, #217, #218 );
#153 = SURFACE_SIDE_STYLE( '', ( #219 ) );
#154 = EDGE_LOOP( '', ( #220 ) );
#155 = EDGE_LOOP( '', ( #221, #222, #223, #224, #225, #226 ) );
#156 = AXIS2_PLACEMENT_3D( '', #227, #228, #229 );
#157 = SURFACE_SIDE_STYLE( '', ( #230 ) );
#158 = EDGE_LOOP( '', ( #231, #232, #233, #234 ) );
#159 = AXIS2_PLACEMENT_3D( '', #235, #236, #237 );
#160 = SURFACE_SIDE_STYLE( '', ( #238 ) );
#161 = EDGE_LOOP( '', ( #239, #240, #241, #242 ) );
#162 = AXIS2_PLACEMENT_3D( '', #243, #244, #245 );
#163 = SURFACE_SIDE_STYLE( '', ( #246 ) );
#164 = EDGE_LOOP( '', ( #247, #248, #249, #250 ) );
#165 = AXIS2_PLACEMENT_3D( '', #251, #252, #253 );
#166 = SURFACE_SIDE_STYLE( '', ( #254 ) );
#167 = EDGE_LOOP( '', ( #255 ) );
#168 = EDGE_LOOP( '', ( #256 ) );
#169 = AXIS2_PLACEMENT_3D( '', #257, #258, #259 );
#170 = SURFACE_SIDE_STYLE( '', ( #260 ) );
#171 = EDGE_LOOP( '', ( #261, #262, #263, #264 ) );
#172 = AXIS2_PLACEMENT_3D( '', #265, #266, #267 );
#173 = SURFACE_SIDE_STYLE( '', ( #268 ) );
#174 = EDGE_LOOP( '', ( #269, #270, #271, #272 ) );
#175 = AXIS2_PLACEMENT_3D( '', #273, #274, #275 );
#177 = SURFACE_STYLE_FILL_AREA( #276 );
#178 = ORIENTED_EDGE( '', *, *, #277, .F. );
#179 = ORIENTED_EDGE( '', *, *, #278, .T. );
#180 = CARTESIAN_POINT( '', ( 4.00000000000000, 1.57050000000000, 0.000000000000000 ) );
#181 = DIRECTION( '', ( -1.00000000000000, 0.000000000000000, 0.000000000000000 ) );
#182 = DIRECTION( '', ( 0.000000000000000, 0.000000000000000, 1.00000000000000 ) );
#183 = SURFACE_STYLE_FILL_AREA( #279 );
#184 = ORIENTED_EDGE( '', *, *, #280, .F. );
#185 = ORIENTED_EDGE( '', *, *, #281, .T. );
#186 = CARTESIAN_POINT( '', ( 5000.00000000000, 0.000000000000000, 0.000000000000000 ) );
#187 = DIRECTION( '', ( -1.00000000000000, -0.000000000000000, 0.000000000000000 ) );
#188 = DIRECTION( '', ( -0.000000000000000, 0.000000000000000, -1.00000000000000 ) );
#189 = SURFACE_STYLE_FILL_AREA( #282 );
#190 = ORIENTED_EDGE( '', *, *, #283, .F. );
#191 = ORIENTED_EDGE( '', *, *, #284, .F. );
#192 = ORIENTED_EDGE( '', *, *, #285, .T. );
#193 = ORIENTED_EDGE( '', *, *, #286, .T. );
#194 = CARTESIAN_POINT( '', ( 1.50000000000000, -1.15470053837925, 0.000000000000000 ) );
#195 = DIRECTION( '', ( -0.000000000000000, 0.866025403784439, 0.500000000000000 ) );
#196 = DIRECTION( '', ( 0.000000000000000, -0.500000000000000, 0.866025403784439 ) );
#197 = SURFACE_STYLE_FILL_AREA( #287 );
#198 = ORIENTED_EDGE( '', *, *, #278, .F. );
#199 = ORIENTED_EDGE( '', *, *, #280, .T. );
#200 = CARTESIAN_POINT( '', ( 3.57050000000037, 0.000000000000000, 0.000000000000000 ) );
#201 = DIRECTION( '', ( -1.00000000000000, 0.000000000000000, -0.000000000000000 ) );
#202 = DIRECTION( '', ( 0.000000000000000, 0.000000000000000, 1.00000000000000 ) );
#203 = SURFACE_STYLE_FILL_AREA( #288 );
#204 = VERTEX_POINT( '', #289 );
#205 = ORIENTED_EDGE( '', *, *, #277, .T. );
#206 = CARTESIAN_POINT( '', ( 3.99999999999956, 0.000000000000000, 0.000000000000000 ) );
#207 = DIRECTION( '', ( 1.00000000000000, -0.000000000000000, -0.000000000000000 ) );
#208 = DIRECTION( '', ( -0.000000000000000, 0.000000000000000, -1.00000000000000 ) );
#209 = SURFACE_STYLE_FILL_AREA( #290 );
#210 = ORIENTED_EDGE( '', *, *, #291, .F. );
#211 = ORIENTED_EDGE( '', *, *, #292, .F. );
#212 = ORIENTED_EDGE( '', *, *, #293, .F. );
#213 = ORIENTED_EDGE( '', *, *, #294, .F. );
#214 = ORIENTED_EDGE( '', *, *, #285, .F. );
#215 = ORIENTED_EDGE( '', *, *, #295, .F. );
#216 = CARTESIAN_POINT( '', ( 1.50000000000000, 0.000000000000000, 0.000000000000000 ) );
#217 = DIRECTION( '', ( 1.00000000000000, 0.000000000000000, 0.000000000000000 ) );
#218 = DIRECTION( '', ( 0.000000000000000, 0.000000000000000, -1.00000000000000 ) );
#219 = SURFACE_STYLE_FILL_AREA( #296 );
#220 = ORIENTED_EDGE( '', *, *, #297, .F. );
#221 = ORIENTED_EDGE( '', *, *, #298, .T. );
#222 = ORIENTED_EDGE( '', *, *, #299, .T. );
#223 = ORIENTED_EDGE( '', *, *, #283, .T. );
#224 = ORIENTED_EDGE( '', *, *, #300, .T. );
#225 = ORIENTED_EDGE( '', *, *, #301, .T. );
#226 = ORIENTED_EDGE( '', *, *, #302, .T. );
#227 = CARTESIAN_POINT( '', ( 0.000000000000000, 0.000000000000000, 0.000000000000000 ) );
#228 = DIRECTION( '', ( 1.00000000000000, 0.000000000000000, -0.000000000000000 ) );
#229 = DIRECTION( '', ( -0.000000000000000, 0.000000000000000, -1.00000000000000 ) );
#230 = SURFACE_STYLE_FILL_AREA( #303 );
#231 = ORIENTED_EDGE( '', *, *, #302, .F. );
#232 = ORIENTED_EDGE( '', *, *, #304, .F. );
#233 = ORIENTED_EDGE( '', *, *, #292, .T. );
#234 = ORIENTED_EDGE( '', *, *, #305, .T. );
#235 = CARTESIAN_POINT( '', ( 1.50000000000000, 1.15470053837925, 0.000000000000000 ) );
#236 = DIRECTION( '', ( 0.000000000000000, -0.866025403784439, -0.500000000000000 ) );
#237 = DIRECTION( '', ( 0.000000000000000, 0.500000000000000, -0.866025403784439 ) );
#238 = SURFACE_STYLE_FILL_AREA( #306 );
#239 = ORIENTED_EDGE( '', *, *, #298, .F. );
#240 = ORIENTED_EDGE( '', *, *, #305, .F. );
#241 = ORIENTED_EDGE( '', *, *, #291, .T. );
#242 = ORIENTED_EDGE( '', *, *, #307, .T. );
#243 = CARTESIAN_POINT( '', ( 1.50000000000000, 0.577350269189626, 1.00000000000000 ) );
#244 = DIRECTION( '', ( 0.000000000000000, 0.000000000000000, -1.00000000000000 ) );
#245 = DIRECTION( '', ( -1.00000000000000, 0.000000000000000, 0.000000000000000 ) );
#246 = SURFACE_STYLE_FILL_AREA( #308 );
#247 = ORIENTED_EDGE( '', *, *, #299, .F. );
#248 = ORIENTED_EDGE( '', *, *, #307, .F. );
#249 = ORIENTED_EDGE( '', *, *, #295, .T. );
#250 = ORIENTED_EDGE( '', *, *, #284, .T. );
#251 = CARTESIAN_POINT( '', ( 1.50000000000000, -0.577350269189626, 1.00000000000000 ) );
#252 = DIRECTION( '', ( 0.000000000000000, 0.866025403784439, -0.500000000000000 ) );
#253 = DIRECTION( '', ( 0.000000000000000, 0.500000000000000, 0.866025403784439 ) );
#254 = SURFACE_STYLE_FILL_AREA( #309 );
#255 = ORIENTED_EDGE( '', *, *, #281, .F. );
#256 = ORIENTED_EDGE( '', *, *, #297, .T. );
#257 = CARTESIAN_POINT( '', ( 0.000000000000000, 0.000000000000000, 0.000000000000000 ) );
#258 = DIRECTION( '', ( 1.00000000000000, -0.000000000000000, -0.000000000000000 ) );
#259 = DIRECTION( '', ( -0.000000000000000, 0.000000000000000, -1.00000000000000 ) );
#260 = SURFACE_STYLE_FILL_AREA( #310 );
#261 = ORIENTED_EDGE( '', *, *, #301, .F. );
#262 = ORIENTED_EDGE( '', *, *, #311, .F. );
#263 = ORIENTED_EDGE( '', *, *, #293, .T. );
#264 = ORIENTED_EDGE( '', *, *, #304, .T. );
#265 = CARTESIAN_POINT( '', ( 1.50000000000000, 0.577350269189626, -1.00000000000000 ) );
#266 = DIRECTION( '', ( 0.000000000000000, -0.866025403784439, 0.500000000000000 ) );
#267 = DIRECTION( '', ( 0.000000000000000, -0.500000000000000, -0.866025403784439 ) );
#268 = SURFACE_STYLE_FILL_AREA( #312 );
#269 = ORIENTED_EDGE( '', *, *, #300, .F. );
#270 = ORIENTED_EDGE( '', *, *, #286, .F. );
#271 = ORIENTED_EDGE( '', *, *, #294, .T. );
#272 = ORIENTED_EDGE( '', *, *, #311, .T. );
#273 = CARTESIAN_POINT( '', ( 1.50000000000000, -0.577350269189626, -1.00000000000000 ) );
#274 = DIRECTION( '', ( 0.000000000000000, 0.000000000000000, 1.00000000000000 ) );
#275 = DIRECTION( '', ( 1.00000000000000, 0.000000000000000, -0.000000000000000 ) );
#276 = FILL_AREA_STYLE( '', ( #313 ) );
#277 = EDGE_CURVE( '', #314, #314, #315, .T. );
#278 = EDGE_CURVE( '', #316, #316, #317, .T. );
#279 = FILL_AREA_STYLE( '', ( #318 ) );
#280 = EDGE_CURVE( '', #319, #319, #320, .T. );
#281 = EDGE_CURVE( '', #321, #321, #322, .T. );
#282 = FILL_AREA_STYLE( '', ( #323 ) );
#283 = EDGE_CURVE( '', #324, #325, #326, .T. );
#284 = EDGE_CURVE( '', #327, #324, #328, .T. );
#285 = EDGE_CURVE( '', #327, #329, #330, .T. );
#286 = EDGE_CURVE( '', #329, #325, #331, .T. );
#287 = FILL_AREA_STYLE( '', ( #332 ) );
#288 = FILL_AREA_STYLE( '', ( #333 ) );
#289 = CARTESIAN_POINT( '', ( 3.42264973081037, 0.000000000000000, 0.000000000000000 ) );
#290 = FILL_AREA_STYLE( '', ( #334 ) );
#291 = EDGE_CURVE( '', #335, #336, #337, .T. );
#292 = EDGE_CURVE( '', #338, #335, #339, .T. );
#293 = EDGE_CURVE( '', #340, #338, #341, .T. );
#294 = EDGE_CURVE( '', #329, #340, #342, .T. );
#295 = EDGE_CURVE( '', #336, #327, #343, .T. );
#296 = FILL_AREA_STYLE( '', ( #344 ) );
#297 = EDGE_CURVE( '', #345, #345, #346, .T. );
#298 = EDGE_CURVE( '', #347, #348, #349, .T. );
#299 = EDGE_CURVE( '', #348, #324, #350, .T. );
#300 = EDGE_CURVE( '', #325, #351, #352, .T. );
#301 = EDGE_CURVE( '', #351, #353, #354, .T. );
#302 = EDGE_CURVE( '', #353, #347, #355, .T. );
#303 = FILL_AREA_STYLE( '', ( #356 ) );
#304 = EDGE_CURVE( '', #338, #353, #357, .T. );
#305 = EDGE_CURVE( '', #335, #347, #358, .T. );
#306 = FILL_AREA_STYLE( '', ( #359 ) );
#307 = EDGE_CURVE( '', #336, #348, #360, .T. );
#308 = FILL_AREA_STYLE( '', ( #361 ) );
#309 = FILL_AREA_STYLE( '', ( #362 ) );
#310 = FILL_AREA_STYLE( '', ( #363 ) );
#311 = EDGE_CURVE( '', #340, #351, #364, .T. );
#312 = FILL_AREA_STYLE( '', ( #365 ) );
#313 = FILL_AREA_STYLE_COLOUR( '', #366 );
#314 = VERTEX_POINT( '', #367 );
#315 = CIRCLE( '', #368, 1.00000000000000 );
#316 = VERTEX_POINT( '', #369 );
#317 = CIRCLE( '', #370, 1.57050000000000 );
#318 = FILL_AREA_STYLE_COLOUR( '', #371 );
#319 = VERTEX_POINT( '', #372 );
#320 = CIRCLE( '', #373, 2.00000000000000 );
#321 = VERTEX_POINT( '', #374 );
#322 = CIRCLE( '', #375, 2.00000000000000 );
#323 = FILL_AREA_STYLE_COLOUR( '', #376 );
#324 = VERTEX_POINT( '', #377 );
#325 = VERTEX_POINT( '', #378 );
#326 = LINE( '', #379, #380 );
#327 = VERTEX_POINT( '', #381 );
#328 = LINE( '', #382, #383 );
#329 = VERTEX_POINT( '', #384 );
#330 = LINE( '', #385, #386 );
#331 = LINE( '', #387, #388 );
#332 = FILL_AREA_STYLE_COLOUR( '', #389 );
#333 = FILL_AREA_STYLE_COLOUR( '', #390 );
#334 = FILL_AREA_STYLE_COLOUR( '', #391 );
#335 = VERTEX_POINT( '', #392 );
#336 = VERTEX_POINT( '', #393 );
#337 = LINE( '', #394, #395 );
#338 = VERTEX_POINT( '', #396 );
#339 = LINE( '', #397, #398 );
#340 = VERTEX_POINT( '', #399 );
#341 = LINE( '', #400, #401 );
#342 = LINE( '', #402, #403 );
#343 = LINE( '', #404, #405 );
#344 = FILL_AREA_STYLE_COLOUR( '', #406 );
#345 = VERTEX_POINT( '', #407 );
#346 = CIRCLE( '', #408, 1.57050000000000 );
#347 = VERTEX_POINT( '', #409 );
#348 = VERTEX_POINT( '', #410 );
#349 = LINE( '', #411, #412 );
#350 = LINE( '', #413, #414 );
#351 = VERTEX_POINT( '', #415 );
#352 = LINE( '', #416, #417 );
#353 = VERTEX_POINT( '', #418 );
#354 = LINE( '', #419, #420 );
#355 = LINE( '', #421, #422 );
#356 = FILL_AREA_STYLE_COLOUR( '', #423 );
#357 = LINE( '', #424, #425 );
#358 = LINE( '', #426, #427 );
#359 = FILL_AREA_STYLE_COLOUR( '', #428 );
#360 = LINE( '', #429, #430 );
#361 = FILL_AREA_STYLE_COLOUR( '', #431 );
#362 = FILL_AREA_STYLE_COLOUR( '', #432 );
#363 = FILL_AREA_STYLE_COLOUR( '', #433 );
#364 = LINE( '', #434, #435 );
#365 = FILL_AREA_STYLE_COLOUR( '', #436 );
#366 = COLOUR_RGB( '', 0.689999997615814, 0.689999997615814, 0.689999997615814 );
#367 = CARTESIAN_POINT( '', ( 3.99999999999956, 0.000000000000000, -1.00000000000000 ) );
#368 = AXIS2_PLACEMENT_3D( '', #437, #438, #439 );
#369 = CARTESIAN_POINT( '', ( 3.99999999999956, 0.000000000000000, -1.57050000000000 ) );
#370 = AXIS2_PLACEMENT_3D( '', #440, #441, #442 );
#371 = COLOUR_RGB( '', 0.689999997615814, 0.689999997615814, 0.689999997615814 );
#372 = CARTESIAN_POINT( '', ( 3.57050000000037, 0.000000000000000, -2.00000000000000 ) );
#373 = AXIS2_PLACEMENT_3D( '', #443, #444, #445 );
#374 = CARTESIAN_POINT( '', ( 0.429500000000083, 0.000000000000000, -2.00000000000000 ) );
#375 = AXIS2_PLACEMENT_3D( '', #446, #447, #448 );
#376 = COLOUR_RGB( '', 0.689999997615814, 0.689999997615814, 0.689999997615814 );
#377 = CARTESIAN_POINT( '', ( 0.000000000000000, -1.15470053837925, 0.000000000000000 ) );
#378 = CARTESIAN_POINT( '', ( 0.000000000000000, -0.577350269189626, -1.00000000000000 ) );
#379 = CARTESIAN_POINT( '', ( 0.000000000000000, -1.15470053837925, 0.000000000000000 ) );
#380 = VECTOR( '', #449, 1000.00000000000 );
#381 = CARTESIAN_POINT( '', ( 1.50000000000000, -1.15470053837925, 0.000000000000000 ) );
#382 = CARTESIAN_POINT( '', ( 1.50000000000000, -1.15470053837925, 0.000000000000000 ) );
#383 = VECTOR( '', #450, 1000.00000000000 );
#384 = CARTESIAN_POINT( '', ( 1.50000000000000, -0.577350269189626, -1.00000000000000 ) );
#385 = CARTESIAN_POINT( '', ( 1.50000000000000, -1.15470053837925, 0.000000000000000 ) );
#386 = VECTOR( '', #451, 1000.00000000000 );
#387 = CARTESIAN_POINT( '', ( 1.50000000000000, -0.577350269189626, -1.00000000000000 ) );
#388 = VECTOR( '', #452, 1000.00000000000 );
#389 = COLOUR_RGB( '', 0.689999997615814, 0.689999997615814, 0.689999997615814 );
#390 = COLOUR_RGB( '', 0.689999997615814, 0.689999997615814, 0.689999997615814 );
#391 = COLOUR_RGB( '', 0.689999997615814, 0.689999997615814, 0.689999997615814 );
#392 = CARTESIAN_POINT( '', ( 1.50000000000000, 0.577350269189626, 1.00000000000000 ) );
#393 = CARTESIAN_POINT( '', ( 1.50000000000000, -0.577350269189626, 1.00000000000000 ) );
#394 = CARTESIAN_POINT( '', ( 1.50000000000000, 0.577350269189626, 1.00000000000000 ) );
#395 = VECTOR( '', #453, 1000.00000000000 );
#396 = CARTESIAN_POINT( '', ( 1.50000000000000, 1.15470053837925, 0.000000000000000 ) );
#397 = CARTESIAN_POINT( '', ( 1.50000000000000, 1.15470053837925, 0.000000000000000 ) );
#398 = VECTOR( '', #454, 1000.00000000000 );
#399 = CARTESIAN_POINT( '', ( 1.50000000000000, 0.577350269189626, -1.00000000000000 ) );
#400 = CARTESIAN_POINT( '', ( 1.50000000000000, 0.577350269189626, -1.00000000000000 ) );
#401 = VECTOR( '', #455, 1000.00000000000 );
#402 = CARTESIAN_POINT( '', ( 1.50000000000000, -0.577350269189626, -1.00000000000000 ) );
#403 = VECTOR( '', #456, 1000.00000000000 );
#404 = CARTESIAN_POINT( '', ( 1.50000000000000, -0.577350269189626, 1.00000000000000 ) );
#405 = VECTOR( '', #457, 1000.00000000000 );
#406 = COLOUR_RGB( '', 0.689999997615814, 0.689999997615814, 0.689999997615814 );
#407 = CARTESIAN_POINT( '', ( 0.000000000000000, 0.000000000000000, -1.57050000000000 ) );
#408 = AXIS2_PLACEMENT_3D( '', #458, #459, #460 );
#409 = CARTESIAN_POINT( '', ( 0.000000000000000, 0.577350269189626, 1.00000000000000 ) );
#410 = CARTESIAN_POINT( '', ( 0.000000000000000, -0.577350269189626, 1.00000000000000 ) );
#411 = CARTESIAN_POINT( '', ( 0.000000000000000, 0.577350269189626, 1.00000000000000 ) );
#412 = VECTOR( '', #461, 1000.00000000000 );
#413 = CARTESIAN_POINT( '', ( 0.000000000000000, -0.577350269189626, 1.00000000000000 ) );
#414 = VECTOR( '', #462, 1000.00000000000 );
#415 = CARTESIAN_POINT( '', ( 0.000000000000000, 0.577350269189626, -1.00000000000000 ) );
#416 = CARTESIAN_POINT( '', ( 0.000000000000000, -0.577350269189626, -1.00000000000000 ) );
#417 = VECTOR( '', #463, 1000.00000000000 );
#418 = CARTESIAN_POINT( '', ( 0.000000000000000, 1.15470053837925, 0.000000000000000 ) );
#419 = CARTESIAN_POINT( '', ( 0.000000000000000, 0.577350269189626, -1.00000000000000 ) );
#420 = VECTOR( '', #464, 1000.00000000000 );
#421 = CARTESIAN_POINT( '', ( 0.000000000000000, 1.15470053837925, 0.000000000000000 ) );
#422 = VECTOR( '', #465, 1000.00000000000 );
#423 = COLOUR_RGB( '', 0.689999997615814, 0.689999997615814, 0.689999997615814 );
#424 = CARTESIAN_POINT( '', ( 1.50000000000000, 1.15470053837925, 0.000000000000000 ) );
#425 = VECTOR( '', #466, 1000.00000000000 );
#426 = CARTESIAN_POINT( '', ( 1.50000000000000, 0.577350269189626, 1.00000000000000 ) );
#427 = VECTOR( '', #467, 1000.00000000000 );
#428 = COLOUR_RGB( '', 0.689999997615814, 0.689999997615814, 0.689999997615814 );
#429 = CARTESIAN_POINT( '', ( 1.50000000000000, -0.577350269189626, 1.00000000000000 ) );
#430 = VECTOR( '', #468, 1000.00000000000 );
#431 = COLOUR_RGB( '', 0.689999997615814, 0.689999997615814, 0.689999997615814 );
#432 = COLOUR_RGB( '', 0.689999997615814, 0.689999997615814, 0.689999997615814 );
#433 = COLOUR_RGB( '', 0.689999997615814, 0.689999997615814, 0.689999997615814 );
#434 = CARTESIAN_POINT( '', ( 1.50000000000000, 0.577350269189626, -1.00000000000000 ) );
#435 = VECTOR( '', #469, 1000.00000000000 );
#436 = COLOUR_RGB( '', 0.689999997615814, 0.689999997615814, 0.689999997615814 );
#437 = CARTESIAN_POINT( '', ( 3.99999999999956, 0.000000000000000, 0.000000000000000 ) );
#438 = DIRECTION( '', ( 1.00000000000000, 0.000000000000000, -0.000000000000000 ) );
#439 = DIRECTION( '', ( -0.000000000000000, 0.000000000000000, -1.00000000000000 ) );
#440 = CARTESIAN_POINT( '', ( 3.99999999999956, 0.000000000000000, 0.000000000000000 ) );
#441 = DIRECTION( '', ( 1.00000000000000, 0.000000000000000, -0.000000000000000 ) );
#442 = DIRECTION( '', ( -0.000000000000000, 0.000000000000000, -1.00000000000000 ) );
#443 = CARTESIAN_POINT( '', ( 3.57050000000037, 0.000000000000000, 0.000000000000000 ) );
#444 = DIRECTION( '', ( 1.00000000000000, 0.000000000000000, -0.000000000000000 ) );
#445 = DIRECTION( '', ( -0.000000000000000, 0.000000000000000, -1.00000000000000 ) );
#446 = CARTESIAN_POINT( '', ( 0.429500000000083, 0.000000000000000, 0.000000000000000 ) );
#447 = DIRECTION( '', ( 1.00000000000000, 0.000000000000000, -0.000000000000000 ) );
#448 = DIRECTION( '', ( -0.000000000000000, 0.000000000000000, -1.00000000000000 ) );
#449 = DIRECTION( '', ( 0.000000000000000, 0.500000000000000, -0.866025403784439 ) );
#450 = DIRECTION( '', ( -1.00000000000000, -0.000000000000000, -0.000000000000000 ) );
#451 = DIRECTION( '', ( 0.000000000000000, 0.500000000000000, -0.866025403784439 ) );
#452 = DIRECTION( '', ( -1.00000000000000, -0.000000000000000, -0.000000000000000 ) );
#453 = DIRECTION( '', ( 0.000000000000000, -1.00000000000000, 0.000000000000000 ) );
#454 = DIRECTION( '', ( 0.000000000000000, -0.500000000000000, 0.866025403784439 ) );
#455 = DIRECTION( '', ( 0.000000000000000, 0.500000000000000, 0.866025403784439 ) );
#456 = DIRECTION( '', ( 0.000000000000000, 1.00000000000000, 0.000000000000000 ) );
#457 = DIRECTION( '', ( 0.000000000000000, -0.500000000000000, -0.866025403784439 ) );
#458 = CARTESIAN_POINT( '', ( 0.000000000000000, 0.000000000000000, 0.000000000000000 ) );
#459 = DIRECTION( '', ( 1.00000000000000, 0.000000000000000, -0.000000000000000 ) );
#460 = DIRECTION( '', ( -0.000000000000000, 0.000000000000000, -1.00000000000000 ) );
#461 = DIRECTION( '', ( 0.000000000000000, -1.00000000000000, 0.000000000000000 ) );
#462 = DIRECTION( '', ( 0.000000000000000, -0.500000000000000, -0.866025403784439 ) );
#463 = DIRECTION( '', ( 0.000000000000000, 1.00000000000000, 0.000000000000000 ) );
#464 = DIRECTION( '', ( 0.000000000000000, 0.500000000000000, 0.866025403784439 ) );
#465 = DIRECTION( '', ( 0.000000000000000, -0.500000000000000, 0.866025403784439 ) );
#466 = DIRECTION( '', ( -1.00000000000000, -0.000000000000000, -0.000000000000000 ) );
#467 = DIRECTION( '', ( -1.00000000000000, -0.000000000000000, -0.000000000000000 ) );
#468 = DIRECTION( '', ( -1.00000000000000, -0.000000000000000, -0.000000000000000 ) );
#469 = DIRECTION( '', ( -1.00000000000000, -0.000000000000000, -0.000000000000000 ) );
ENDSEC;
END-ISO-10303-21;
