ISO-10303-21;
HEADER;
FILE_DESCRIPTION( ( 'STEP AP214' ), ' ' );
FILE_NAME( 'C:/Users/Administrator.PC-20161113MDTN/Desktop/\X2\87BA7EB987BA6813\X0\/\X2\87BA7EB9680751C64EF6\X0\/\X2\5185516D89D27D275B9A87BA9489\X0\/\X2\51F97AEF\X0\/\X2\51F97AEF5185516D89D27D275B9A87BA9489\X0\/PSEP-3-6-A.stp', '2019-07-03T05:21:20', ( '' ), ( '' ), ' ', 'PARTsolutions', ' ' );
FILE_SCHEMA( ( 'AUTOMOTIVE_DESIGN { 1 0 10303 214 1 1 1 1 }' ) );
ENDSEC;
DATA;
#1 = MECHANICAL_DESIGN_GEOMETRIC_PRESENTATION_REPRESENTATION( ' ', ( #10, #11, #12, #13, #14, #15, #16, #17, #18, #19, #20, #21, #22 ), #6 );
#2 = PRODUCT_DEFINITION_CONTEXT( '', #23, 'design' );
#3 = APPLICATION_PROTOCOL_DEFINITION( 'international standard', 'automotive_design', 2001, #23 );
#4 = PRODUCT_CATEGORY_RELATIONSHIP( 'NONE', 'NONE', #24, #25 );
#5 = SHAPE_DEFINITION_REPRESENTATION( #26, #27 );
#6 =  ( GEOMETRIC_REPRESENTATION_CONTEXT( 3 )GLOBAL_UNCERTAINTY_ASSIGNED_CONTEXT( ( #30 ) )GLOBAL_UNIT_ASSIGNED_CONTEXT( ( #32, #33, #34 ) )REPRESENTATION_CONTEXT( 'NONE', 'WORKSPACE' ) );
#10 = STYLED_ITEM( '', ( #36 ), #37 );
#11 = STYLED_ITEM( '', ( #38 ), #39 );
#12 = STYLED_ITEM( '', ( #40 ), #41 );
#13 = STYLED_ITEM( '', ( #42 ), #43 );
#14 = STYLED_ITEM( '', ( #44 ), #45 );
#15 = STYLED_ITEM( '', ( #46 ), #47 );
#16 = STYLED_ITEM( '', ( #48 ), #49 );
#17 = STYLED_ITEM( '', ( #50 ), #51 );
#18 = STYLED_ITEM( '', ( #52 ), #53 );
#19 = STYLED_ITEM( '', ( #54 ), #55 );
#20 = STYLED_ITEM( '', ( #56 ), #57 );
#21 = STYLED_ITEM( '', ( #58 ), #59 );
#22 = STYLED_ITEM( '', ( #60 ), #61 );
#23 = APPLICATION_CONTEXT( 'core data for automotive mechanical design processes' );
#24 = PRODUCT_CATEGORY( 'part', 'NONE' );
#25 = PRODUCT_RELATED_PRODUCT_CATEGORY( 'detail', ' ', ( #62 ) );
#26 = PRODUCT_DEFINITION_SHAPE( 'NONE', 'NONE', #63 );
#27 = ADVANCED_BREP_SHAPE_REPRESENTATION( '_PSEP-3-6-A', ( #64, #65 ), #6 );
#30 = UNCERTAINTY_MEASURE_WITH_UNIT( LENGTH_MEASURE( 0.00100000000000000 ), #32, '', '' );
#32 =  ( CONVERSION_BASED_UNIT( 'MILLIMETRE', #68 )LENGTH_UNIT(  )NAMED_UNIT( #71 ) );
#33 =  ( NAMED_UNIT( #73 )PLANE_ANGLE_UNIT(  )SI_UNIT( $, .RADIAN. ) );
#34 =  ( NAMED_UNIT( #73 )SI_UNIT( $, .STERADIAN. )SOLID_ANGLE_UNIT(  ) );
#36 = PRESENTATION_STYLE_ASSIGNMENT( ( #79 ) );
#37 = ADVANCED_FACE( '', ( #80 ), #81, .T. );
#38 = PRESENTATION_STYLE_ASSIGNMENT( ( #82 ) );
#39 = ADVANCED_FACE( '', ( #83, #84 ), #85, .F. );
#40 = PRESENTATION_STYLE_ASSIGNMENT( ( #86 ) );
#41 = ADVANCED_FACE( '', ( #87 ), #88, .T. );
#42 = PRESENTATION_STYLE_ASSIGNMENT( ( #89 ) );
#43 = ADVANCED_FACE( '', ( #90 ), #91, .T. );
#44 = PRESENTATION_STYLE_ASSIGNMENT( ( #92 ) );
#45 = ADVANCED_FACE( '', ( #93, #94 ), #95, .F. );
#46 = PRESENTATION_STYLE_ASSIGNMENT( ( #96 ) );
#47 = ADVANCED_FACE( '', ( #97 ), #98, .T. );
#48 = PRESENTATION_STYLE_ASSIGNMENT( ( #99 ) );
#49 = ADVANCED_FACE( '', ( #100 ), #101, .T. );
#50 = PRESENTATION_STYLE_ASSIGNMENT( ( #102 ) );
#51 = ADVANCED_FACE( '', ( #103, #104 ), #105, .F. );
#52 = PRESENTATION_STYLE_ASSIGNMENT( ( #106 ) );
#53 = ADVANCED_FACE( '', ( #107, #108 ), #109, .T. );
#54 = PRESENTATION_STYLE_ASSIGNMENT( ( #110 ) );
#55 = ADVANCED_FACE( '', ( #111, #112 ), #113, .T. );
#56 = PRESENTATION_STYLE_ASSIGNMENT( ( #114 ) );
#57 = ADVANCED_FACE( '', ( #115 ), #116, .F. );
#58 = PRESENTATION_STYLE_ASSIGNMENT( ( #117 ) );
#59 = ADVANCED_FACE( '', ( #118 ), #119, .T. );
#60 = PRESENTATION_STYLE_ASSIGNMENT( ( #120 ) );
#61 = ADVANCED_FACE( '', ( #121, #122 ), #123, .T. );
#62 = PRODUCT( '_PSEP-3-6-A', '_PSEP-3-6-A', 'PART-_PSEP-3-6-A-DESC', ( #124 ) );
#63 = PRODUCT_DEFINITION( 'NONE', 'NONE', #125, #2 );
#64 = MANIFOLD_SOLID_BREP( '_PSEP-3-6-A', #126 );
#65 = AXIS2_PLACEMENT_3D( '', #127, #128, #129 );
#68 = LENGTH_MEASURE_WITH_UNIT( LENGTH_MEASURE( 1.00000000000000 ), #130 );
#71 = DIMENSIONAL_EXPONENTS( 1.00000000000000, 0.000000000000000, 0.000000000000000, 0.000000000000000, 0.000000000000000, 0.000000000000000, 0.000000000000000 );
#73 = DIMENSIONAL_EXPONENTS( 0.000000000000000, 0.000000000000000, 0.000000000000000, 0.000000000000000, 0.000000000000000, 0.000000000000000, 0.000000000000000 );
#79 = SURFACE_STYLE_USAGE( .BOTH., #131 );
#80 = FACE_OUTER_BOUND( '', #132, .T. );
#81 = PLANE( '', #133 );
#82 = SURFACE_STYLE_USAGE( .BOTH., #134 );
#83 = FACE_BOUND( '', #135, .T. );
#84 = FACE_OUTER_BOUND( '', #136, .T. );
#85 = PLANE( '', #137 );
#86 = SURFACE_STYLE_USAGE( .BOTH., #138 );
#87 = FACE_OUTER_BOUND( '', #139, .T. );
#88 = PLANE( '', #140 );
#89 = SURFACE_STYLE_USAGE( .BOTH., #141 );
#90 = FACE_OUTER_BOUND( '', #142, .T. );
#91 = PLANE( '', #143 );
#92 = SURFACE_STYLE_USAGE( .BOTH., #144 );
#93 = FACE_BOUND( '', #145, .T. );
#94 = FACE_OUTER_BOUND( '', #146, .T. );
#95 = CONICAL_SURFACE( '', #147, 0.700000000000000, 1.04719755119571 );
#96 = SURFACE_STYLE_USAGE( .BOTH., #148 );
#97 = FACE_OUTER_BOUND( '', #149, .T. );
#98 = PLANE( '', #150 );
#99 = SURFACE_STYLE_USAGE( .BOTH., #151 );
#100 = FACE_OUTER_BOUND( '', #152, .T. );
#101 = PLANE( '', #153 );
#102 = SURFACE_STYLE_USAGE( .BOTH., #154 );
#103 = FACE_OUTER_BOUND( '', #155, .T. );
#104 = FACE_BOUND( '', #156, .T. );
#105 = PLANE( '', #157 );
#106 = SURFACE_STYLE_USAGE( .BOTH., #158 );
#107 = FACE_OUTER_BOUND( '', #159, .T. );
#108 = FACE_OUTER_BOUND( '', #160, .T. );
#109 = CYLINDRICAL_SURFACE( '', #161, 1.50000000000000 );
#110 = SURFACE_STYLE_USAGE( .BOTH., #162 );
#111 = FACE_OUTER_BOUND( '', #163, .T. );
#112 = FACE_BOUND( '', #164, .T. );
#113 = CONICAL_SURFACE( '', #165, 1.19350000000000, 0.785398163397831 );
#114 = SURFACE_STYLE_USAGE( .BOTH., #166 );
#115 = FACE_OUTER_BOUND( '', #167, .T. );
#116 = PLANE( '', #168 );
#117 = SURFACE_STYLE_USAGE( .BOTH., #169 );
#118 = FACE_OUTER_BOUND( '', #170, .T. );
#119 = PLANE( '', #171 );
#120 = SURFACE_STYLE_USAGE( .BOTH., #172 );
#121 = FACE_BOUND( '', #173, .T. );
#122 = FACE_OUTER_BOUND( '', #174, .T. );
#123 = CONICAL_SURFACE( '', #175, 1.50000000000000, 0.785398163396382 );
#124 = PRODUCT_CONTEXT( '', #23, 'mechanical' );
#125 = PRODUCT_DEFINITION_FORMATION_WITH_SPECIFIED_SOURCE( ' ', 'NONE', #62, .NOT_KNOWN. );
#126 = CLOSED_SHELL( '', ( #55, #51, #41, #57, #59, #43, #47, #49, #37, #45, #39, #61, #53 ) );
#127 = CARTESIAN_POINT( '', ( 0.000000000000000, 0.000000000000000, 0.000000000000000 ) );
#128 = DIRECTION( '', ( 0.000000000000000, 0.000000000000000, 1.00000000000000 ) );
#129 = DIRECTION( '', ( 1.00000000000000, 0.000000000000000, 0.000000000000000 ) );
#130 =  ( LENGTH_UNIT(  )NAMED_UNIT( #71 )SI_UNIT( .MILLI., .METRE. ) );
#131 = SURFACE_SIDE_STYLE( '', ( #177 ) );
#132 = EDGE_LOOP( '', ( #178, #179, #180, #181 ) );
#133 = AXIS2_PLACEMENT_3D( '', #182, #183, #184 );
#134 = SURFACE_SIDE_STYLE( '', ( #185 ) );
#135 = EDGE_LOOP( '', ( #186 ) );
#136 = EDGE_LOOP( '', ( #187 ) );
#137 = AXIS2_PLACEMENT_3D( '', #188, #189, #190 );
#138 = SURFACE_SIDE_STYLE( '', ( #191 ) );
#139 = EDGE_LOOP( '', ( #192, #193, #194, #195 ) );
#140 = AXIS2_PLACEMENT_3D( '', #196, #197, #198 );
#141 = SURFACE_SIDE_STYLE( '', ( #199 ) );
#142 = EDGE_LOOP( '', ( #200, #201, #202, #203 ) );
#143 = AXIS2_PLACEMENT_3D( '', #204, #205, #206 );
#144 = SURFACE_SIDE_STYLE( '', ( #207 ) );
#145 = VERTEX_LOOP( '', #208 );
#146 = EDGE_LOOP( '', ( #209 ) );
#147 = AXIS2_PLACEMENT_3D( '', #210, #211, #212 );
#148 = SURFACE_SIDE_STYLE( '', ( #213 ) );
#149 = EDGE_LOOP( '', ( #214, #215, #216, #217 ) );
#150 = AXIS2_PLACEMENT_3D( '', #218, #219, #220 );
#151 = SURFACE_SIDE_STYLE( '', ( #221 ) );
#152 = EDGE_LOOP( '', ( #222, #223, #224, #225 ) );
#153 = AXIS2_PLACEMENT_3D( '', #226, #227, #228 );
#154 = SURFACE_SIDE_STYLE( '', ( #229 ) );
#155 = EDGE_LOOP( '', ( #230 ) );
#156 = EDGE_LOOP( '', ( #231, #232, #233, #234, #235, #236 ) );
#157 = AXIS2_PLACEMENT_3D( '', #237, #238, #239 );
#158 = SURFACE_SIDE_STYLE( '', ( #240 ) );
#159 = EDGE_LOOP( '', ( #241 ) );
#160 = EDGE_LOOP( '', ( #242 ) );
#161 = AXIS2_PLACEMENT_3D( '', #243, #244, #245 );
#162 = SURFACE_SIDE_STYLE( '', ( #246 ) );
#163 = EDGE_LOOP( '', ( #247 ) );
#164 = EDGE_LOOP( '', ( #248 ) );
#165 = AXIS2_PLACEMENT_3D( '', #249, #250, #251 );
#166 = SURFACE_SIDE_STYLE( '', ( #252 ) );
#167 = EDGE_LOOP( '', ( #253, #254, #255, #256, #257, #258 ) );
#168 = AXIS2_PLACEMENT_3D( '', #259, #260, #261 );
#169 = SURFACE_SIDE_STYLE( '', ( #262 ) );
#170 = EDGE_LOOP( '', ( #263, #264, #265, #266 ) );
#171 = AXIS2_PLACEMENT_3D( '', #267, #268, #269 );
#172 = SURFACE_SIDE_STYLE( '', ( #270 ) );
#173 = EDGE_LOOP( '', ( #271 ) );
#174 = EDGE_LOOP( '', ( #272 ) );
#175 = AXIS2_PLACEMENT_3D( '', #273, #274, #275 );
#177 = SURFACE_STYLE_FILL_AREA( #276 );
#178 = ORIENTED_EDGE( '', *, *, #277, .F. );
#179 = ORIENTED_EDGE( '', *, *, #278, .F. );
#180 = ORIENTED_EDGE( '', *, *, #279, .T. );
#181 = ORIENTED_EDGE( '', *, *, #280, .T. );
#182 = CARTESIAN_POINT( '', ( 1.20000000000000, 0.433012701892219, 0.750000000000000 ) );
#183 = DIRECTION( '', ( 0.000000000000000, 0.000000000000000, -1.00000000000000 ) );
#184 = DIRECTION( '', ( -1.00000000000000, 0.000000000000000, 0.000000000000000 ) );
#185 = SURFACE_STYLE_FILL_AREA( #281 );
#186 = ORIENTED_EDGE( '', *, *, #282, .F. );
#187 = ORIENTED_EDGE( '', *, *, #283, .T. );
#188 = CARTESIAN_POINT( '', ( 6.00000000000000, 1.19350000000000, 0.000000000000000 ) );
#189 = DIRECTION( '', ( -1.00000000000000, 0.000000000000000, 0.000000000000000 ) );
#190 = DIRECTION( '', ( 0.000000000000000, 0.000000000000000, 1.00000000000000 ) );
#191 = SURFACE_STYLE_FILL_AREA( #284 );
#192 = ORIENTED_EDGE( '', *, *, #285, .F. );
#193 = ORIENTED_EDGE( '', *, *, #286, .F. );
#194 = ORIENTED_EDGE( '', *, *, #287, .T. );
#195 = ORIENTED_EDGE( '', *, *, #278, .T. );
#196 = CARTESIAN_POINT( '', ( 1.20000000000000, 0.866025403784439, 0.000000000000000 ) );
#197 = DIRECTION( '', ( 0.000000000000000, -0.866025403784439, -0.500000000000000 ) );
#198 = DIRECTION( '', ( 0.000000000000000, 0.500000000000000, -0.866025403784439 ) );
#199 = SURFACE_STYLE_FILL_AREA( #288 );
#200 = ORIENTED_EDGE( '', *, *, #289, .F. );
#201 = ORIENTED_EDGE( '', *, *, #290, .F. );
#202 = ORIENTED_EDGE( '', *, *, #291, .T. );
#203 = ORIENTED_EDGE( '', *, *, #292, .T. );
#204 = CARTESIAN_POINT( '', ( 1.20000000000000, -0.433012701892219, -0.750000000000000 ) );
#205 = DIRECTION( '', ( 0.000000000000000, 0.000000000000000, 1.00000000000000 ) );
#206 = DIRECTION( '', ( 1.00000000000000, 0.000000000000000, -0.000000000000000 ) );
#207 = SURFACE_STYLE_FILL_AREA( #293 );
#208 = VERTEX_POINT( '', #294 );
#209 = ORIENTED_EDGE( '', *, *, #282, .T. );
#210 = CARTESIAN_POINT( '', ( 6.00000000000023, 0.000000000000000, 0.000000000000000 ) );
#211 = DIRECTION( '', ( 1.00000000000000, -0.000000000000000, -0.000000000000000 ) );
#212 = DIRECTION( '', ( -0.000000000000000, 0.000000000000000, -1.00000000000000 ) );
#213 = SURFACE_STYLE_FILL_AREA( #295 );
#214 = ORIENTED_EDGE( '', *, *, #296, .F. );
#215 = ORIENTED_EDGE( '', *, *, #297, .F. );
#216 = ORIENTED_EDGE( '', *, *, #298, .T. );
#217 = ORIENTED_EDGE( '', *, *, #290, .T. );
#218 = CARTESIAN_POINT( '', ( 1.20000000000000, -0.866025403784439, 0.000000000000000 ) );
#219 = DIRECTION( '', ( -0.000000000000000, 0.866025403784439, 0.500000000000000 ) );
#220 = DIRECTION( '', ( 0.000000000000000, -0.500000000000000, 0.866025403784439 ) );
#221 = SURFACE_STYLE_FILL_AREA( #299 );
#222 = ORIENTED_EDGE( '', *, *, #300, .F. );
#223 = ORIENTED_EDGE( '', *, *, #280, .F. );
#224 = ORIENTED_EDGE( '', *, *, #301, .T. );
#225 = ORIENTED_EDGE( '', *, *, #297, .T. );
#226 = CARTESIAN_POINT( '', ( 1.20000000000000, -0.433012701892219, 0.750000000000000 ) );
#227 = DIRECTION( '', ( 0.000000000000000, 0.866025403784439, -0.500000000000000 ) );
#228 = DIRECTION( '', ( 0.000000000000000, 0.500000000000000, 0.866025403784439 ) );
#229 = SURFACE_STYLE_FILL_AREA( #302 );
#230 = ORIENTED_EDGE( '', *, *, #303, .F. );
#231 = ORIENTED_EDGE( '', *, *, #277, .T. );
#232 = ORIENTED_EDGE( '', *, *, #300, .T. );
#233 = ORIENTED_EDGE( '', *, *, #296, .T. );
#234 = ORIENTED_EDGE( '', *, *, #289, .T. );
#235 = ORIENTED_EDGE( '', *, *, #304, .T. );
#236 = ORIENTED_EDGE( '', *, *, #285, .T. );
#237 = CARTESIAN_POINT( '', ( 0.000000000000000, 0.000000000000000, 0.000000000000000 ) );
#238 = DIRECTION( '', ( 1.00000000000000, 0.000000000000000, -0.000000000000000 ) );
#239 = DIRECTION( '', ( -0.000000000000000, 0.000000000000000, -1.00000000000000 ) );
#240 = SURFACE_STYLE_FILL_AREA( #305 );
#241 = ORIENTED_EDGE( '', *, *, #306, .F. );
#242 = ORIENTED_EDGE( '', *, *, #307, .T. );
#243 = CARTESIAN_POINT( '', ( 5000.00000000000, 0.000000000000000, 0.000000000000000 ) );
#244 = DIRECTION( '', ( -1.00000000000000, -0.000000000000000, 0.000000000000000 ) );
#245 = DIRECTION( '', ( -0.000000000000000, 0.000000000000000, -1.00000000000000 ) );
#246 = SURFACE_STYLE_FILL_AREA( #308 );
#247 = ORIENTED_EDGE( '', *, *, #307, .F. );
#248 = ORIENTED_EDGE( '', *, *, #303, .T. );
#249 = CARTESIAN_POINT( '', ( 0.000000000000000, 0.000000000000000, 0.000000000000000 ) );
#250 = DIRECTION( '', ( 1.00000000000000, -0.000000000000000, -0.000000000000000 ) );
#251 = DIRECTION( '', ( -0.000000000000000, 0.000000000000000, -1.00000000000000 ) );
#252 = SURFACE_STYLE_FILL_AREA( #309 );
#253 = ORIENTED_EDGE( '', *, *, #279, .F. );
#254 = ORIENTED_EDGE( '', *, *, #287, .F. );
#255 = ORIENTED_EDGE( '', *, *, #310, .F. );
#256 = ORIENTED_EDGE( '', *, *, #291, .F. );
#257 = ORIENTED_EDGE( '', *, *, #298, .F. );
#258 = ORIENTED_EDGE( '', *, *, #301, .F. );
#259 = CARTESIAN_POINT( '', ( 1.20000000000000, 0.000000000000000, 0.000000000000000 ) );
#260 = DIRECTION( '', ( 1.00000000000000, 0.000000000000000, 0.000000000000000 ) );
#261 = DIRECTION( '', ( 0.000000000000000, 0.000000000000000, -1.00000000000000 ) );
#262 = SURFACE_STYLE_FILL_AREA( #311 );
#263 = ORIENTED_EDGE( '', *, *, #304, .F. );
#264 = ORIENTED_EDGE( '', *, *, #292, .F. );
#265 = ORIENTED_EDGE( '', *, *, #310, .T. );
#266 = ORIENTED_EDGE( '', *, *, #286, .T. );
#267 = CARTESIAN_POINT( '', ( 1.20000000000000, 0.433012701892219, -0.750000000000000 ) );
#268 = DIRECTION( '', ( 0.000000000000000, -0.866025403784439, 0.500000000000000 ) );
#269 = DIRECTION( '', ( 0.000000000000000, -0.500000000000000, -0.866025403784439 ) );
#270 = SURFACE_STYLE_FILL_AREA( #312 );
#271 = ORIENTED_EDGE( '', *, *, #283, .F. );
#272 = ORIENTED_EDGE( '', *, *, #306, .T. );
#273 = CARTESIAN_POINT( '', ( 5.69349999999957, 0.000000000000000, 0.000000000000000 ) );
#274 = DIRECTION( '', ( -1.00000000000000, 0.000000000000000, -0.000000000000000 ) );
#275 = DIRECTION( '', ( 0.000000000000000, 0.000000000000000, 1.00000000000000 ) );
#276 = FILL_AREA_STYLE( '', ( #313 ) );
#277 = EDGE_CURVE( '', #314, #315, #316, .T. );
#278 = EDGE_CURVE( '', #317, #314, #318, .T. );
#279 = EDGE_CURVE( '', #317, #319, #320, .T. );
#280 = EDGE_CURVE( '', #319, #315, #321, .T. );
#281 = FILL_AREA_STYLE( '', ( #322 ) );
#282 = EDGE_CURVE( '', #323, #323, #324, .T. );
#283 = EDGE_CURVE( '', #325, #325, #326, .T. );
#284 = FILL_AREA_STYLE( '', ( #327 ) );
#285 = EDGE_CURVE( '', #328, #314, #329, .T. );
#286 = EDGE_CURVE( '', #330, #328, #331, .T. );
#287 = EDGE_CURVE( '', #330, #317, #332, .T. );
#288 = FILL_AREA_STYLE( '', ( #333 ) );
#289 = EDGE_CURVE( '', #334, #335, #336, .T. );
#290 = EDGE_CURVE( '', #337, #334, #338, .T. );
#291 = EDGE_CURVE( '', #337, #339, #340, .T. );
#292 = EDGE_CURVE( '', #339, #335, #341, .T. );
#293 = FILL_AREA_STYLE( '', ( #342 ) );
#294 = CARTESIAN_POINT( '', ( 5.59585481156726, 0.000000000000000, 0.000000000000000 ) );
#295 = FILL_AREA_STYLE( '', ( #343 ) );
#296 = EDGE_CURVE( '', #344, #334, #345, .T. );
#297 = EDGE_CURVE( '', #346, #344, #347, .T. );
#298 = EDGE_CURVE( '', #346, #337, #348, .T. );
#299 = FILL_AREA_STYLE( '', ( #349 ) );
#300 = EDGE_CURVE( '', #315, #344, #350, .T. );
#301 = EDGE_CURVE( '', #319, #346, #351, .T. );
#302 = FILL_AREA_STYLE( '', ( #352 ) );
#303 = EDGE_CURVE( '', #353, #353, #354, .T. );
#304 = EDGE_CURVE( '', #335, #328, #355, .T. );
#305 = FILL_AREA_STYLE( '', ( #356 ) );
#306 = EDGE_CURVE( '', #357, #357, #358, .T. );
#307 = EDGE_CURVE( '', #359, #359, #360, .T. );
#308 = FILL_AREA_STYLE( '', ( #361 ) );
#309 = FILL_AREA_STYLE( '', ( #362 ) );
#310 = EDGE_CURVE( '', #339, #330, #363, .T. );
#311 = FILL_AREA_STYLE( '', ( #364 ) );
#312 = FILL_AREA_STYLE( '', ( #365 ) );
#313 = FILL_AREA_STYLE_COLOUR( '', #366 );
#314 = VERTEX_POINT( '', #367 );
#315 = VERTEX_POINT( '', #368 );
#316 = LINE( '', #369, #370 );
#317 = VERTEX_POINT( '', #371 );
#318 = LINE( '', #372, #373 );
#319 = VERTEX_POINT( '', #374 );
#320 = LINE( '', #375, #376 );
#321 = LINE( '', #377, #378 );
#322 = FILL_AREA_STYLE_COLOUR( '', #379 );
#323 = VERTEX_POINT( '', #380 );
#324 = CIRCLE( '', #381, 0.700000000000000 );
#325 = VERTEX_POINT( '', #382 );
#326 = CIRCLE( '', #383, 1.19350000000000 );
#327 = FILL_AREA_STYLE_COLOUR( '', #384 );
#328 = VERTEX_POINT( '', #385 );
#329 = LINE( '', #386, #387 );
#330 = VERTEX_POINT( '', #388 );
#331 = LINE( '', #389, #390 );
#332 = LINE( '', #391, #392 );
#333 = FILL_AREA_STYLE_COLOUR( '', #393 );
#334 = VERTEX_POINT( '', #394 );
#335 = VERTEX_POINT( '', #395 );
#336 = LINE( '', #396, #397 );
#337 = VERTEX_POINT( '', #398 );
#338 = LINE( '', #399, #400 );
#339 = VERTEX_POINT( '', #401 );
#340 = LINE( '', #402, #403 );
#341 = LINE( '', #404, #405 );
#342 = FILL_AREA_STYLE_COLOUR( '', #406 );
#343 = FILL_AREA_STYLE_COLOUR( '', #407 );
#344 = VERTEX_POINT( '', #408 );
#345 = LINE( '', #409, #410 );
#346 = VERTEX_POINT( '', #411 );
#347 = LINE( '', #412, #413 );
#348 = LINE( '', #414, #415 );
#349 = FILL_AREA_STYLE_COLOUR( '', #416 );
#350 = LINE( '', #417, #418 );
#351 = LINE( '', #419, #420 );
#352 = FILL_AREA_STYLE_COLOUR( '', #421 );
#353 = VERTEX_POINT( '', #422 );
#354 = CIRCLE( '', #423, 1.19350000000000 );
#355 = LINE( '', #424, #425 );
#356 = FILL_AREA_STYLE_COLOUR( '', #426 );
#357 = VERTEX_POINT( '', #427 );
#358 = CIRCLE( '', #428, 1.50000000000000 );
#359 = VERTEX_POINT( '', #429 );
#360 = CIRCLE( '', #430, 1.50000000000000 );
#361 = FILL_AREA_STYLE_COLOUR( '', #431 );
#362 = FILL_AREA_STYLE_COLOUR( '', #432 );
#363 = LINE( '', #433, #434 );
#364 = FILL_AREA_STYLE_COLOUR( '', #435 );
#365 = FILL_AREA_STYLE_COLOUR( '', #436 );
#366 = COLOUR_RGB( '', 0.689999997615814, 0.689999997615814, 0.689999997615814 );
#367 = CARTESIAN_POINT( '', ( 0.000000000000000, 0.433012701892219, 0.750000000000000 ) );
#368 = CARTESIAN_POINT( '', ( 0.000000000000000, -0.433012701892219, 0.750000000000000 ) );
#369 = CARTESIAN_POINT( '', ( 0.000000000000000, 0.433012701892219, 0.750000000000000 ) );
#370 = VECTOR( '', #437, 1000.00000000000 );
#371 = CARTESIAN_POINT( '', ( 1.20000000000000, 0.433012701892219, 0.750000000000000 ) );
#372 = CARTESIAN_POINT( '', ( 1.20000000000000, 0.433012701892219, 0.750000000000000 ) );
#373 = VECTOR( '', #438, 1000.00000000000 );
#374 = CARTESIAN_POINT( '', ( 1.20000000000000, -0.433012701892219, 0.750000000000000 ) );
#375 = CARTESIAN_POINT( '', ( 1.20000000000000, 0.433012701892219, 0.750000000000000 ) );
#376 = VECTOR( '', #439, 1000.00000000000 );
#377 = CARTESIAN_POINT( '', ( 1.20000000000000, -0.433012701892219, 0.750000000000000 ) );
#378 = VECTOR( '', #440, 1000.00000000000 );
#379 = COLOUR_RGB( '', 0.689999997615814, 0.689999997615814, 0.689999997615814 );
#380 = CARTESIAN_POINT( '', ( 6.00000000000023, 0.000000000000000, -0.700000000000000 ) );
#381 = AXIS2_PLACEMENT_3D( '', #441, #442, #443 );
#382 = CARTESIAN_POINT( '', ( 6.00000000000023, 0.000000000000000, -1.19350000000000 ) );
#383 = AXIS2_PLACEMENT_3D( '', #444, #445, #446 );
#384 = COLOUR_RGB( '', 0.689999997615814, 0.689999997615814, 0.689999997615814 );
#385 = CARTESIAN_POINT( '', ( 0.000000000000000, 0.866025403784439, 0.000000000000000 ) );
#386 = CARTESIAN_POINT( '', ( 0.000000000000000, 0.866025403784439, 0.000000000000000 ) );
#387 = VECTOR( '', #447, 1000.00000000000 );
#388 = CARTESIAN_POINT( '', ( 1.20000000000000, 0.866025403784439, 0.000000000000000 ) );
#389 = CARTESIAN_POINT( '', ( 1.20000000000000, 0.866025403784439, 0.000000000000000 ) );
#390 = VECTOR( '', #448, 1000.00000000000 );
#391 = CARTESIAN_POINT( '', ( 1.20000000000000, 0.866025403784439, 0.000000000000000 ) );
#392 = VECTOR( '', #449, 1000.00000000000 );
#393 = COLOUR_RGB( '', 0.689999997615814, 0.689999997615814, 0.689999997615814 );
#394 = CARTESIAN_POINT( '', ( 0.000000000000000, -0.433012701892219, -0.750000000000000 ) );
#395 = CARTESIAN_POINT( '', ( 0.000000000000000, 0.433012701892219, -0.750000000000000 ) );
#396 = CARTESIAN_POINT( '', ( 0.000000000000000, -0.433012701892219, -0.750000000000000 ) );
#397 = VECTOR( '', #450, 1000.00000000000 );
#398 = CARTESIAN_POINT( '', ( 1.20000000000000, -0.433012701892219, -0.750000000000000 ) );
#399 = CARTESIAN_POINT( '', ( 1.20000000000000, -0.433012701892219, -0.750000000000000 ) );
#400 = VECTOR( '', #451, 1000.00000000000 );
#401 = CARTESIAN_POINT( '', ( 1.20000000000000, 0.433012701892219, -0.750000000000000 ) );
#402 = CARTESIAN_POINT( '', ( 1.20000000000000, -0.433012701892219, -0.750000000000000 ) );
#403 = VECTOR( '', #452, 1000.00000000000 );
#404 = CARTESIAN_POINT( '', ( 1.20000000000000, 0.433012701892219, -0.750000000000000 ) );
#405 = VECTOR( '', #453, 1000.00000000000 );
#406 = COLOUR_RGB( '', 0.689999997615814, 0.689999997615814, 0.689999997615814 );
#407 = COLOUR_RGB( '', 0.689999997615814, 0.689999997615814, 0.689999997615814 );
#408 = CARTESIAN_POINT( '', ( 0.000000000000000, -0.866025403784439, 0.000000000000000 ) );
#409 = CARTESIAN_POINT( '', ( 0.000000000000000, -0.866025403784439, 0.000000000000000 ) );
#410 = VECTOR( '', #454, 1000.00000000000 );
#411 = CARTESIAN_POINT( '', ( 1.20000000000000, -0.866025403784439, 0.000000000000000 ) );
#412 = CARTESIAN_POINT( '', ( 1.20000000000000, -0.866025403784439, 0.000000000000000 ) );
#413 = VECTOR( '', #455, 1000.00000000000 );
#414 = CARTESIAN_POINT( '', ( 1.20000000000000, -0.866025403784439, 0.000000000000000 ) );
#415 = VECTOR( '', #456, 1000.00000000000 );
#416 = COLOUR_RGB( '', 0.689999997615814, 0.689999997615814, 0.689999997615814 );
#417 = CARTESIAN_POINT( '', ( 0.000000000000000, -0.433012701892219, 0.750000000000000 ) );
#418 = VECTOR( '', #457, 1000.00000000000 );
#419 = CARTESIAN_POINT( '', ( 1.20000000000000, -0.433012701892219, 0.750000000000000 ) );
#420 = VECTOR( '', #458, 1000.00000000000 );
#421 = COLOUR_RGB( '', 0.689999997615814, 0.689999997615814, 0.689999997615814 );
#422 = CARTESIAN_POINT( '', ( 0.000000000000000, 0.000000000000000, -1.19350000000000 ) );
#423 = AXIS2_PLACEMENT_3D( '', #459, #460, #461 );
#424 = CARTESIAN_POINT( '', ( 0.000000000000000, 0.433012701892219, -0.750000000000000 ) );
#425 = VECTOR( '', #462, 1000.00000000000 );
#426 = COLOUR_RGB( '', 0.689999997615814, 0.689999997615814, 0.689999997615814 );
#427 = CARTESIAN_POINT( '', ( 5.69349999999957, 0.000000000000000, -1.50000000000000 ) );
#428 = AXIS2_PLACEMENT_3D( '', #463, #464, #465 );
#429 = CARTESIAN_POINT( '', ( 0.306499999999765, 0.000000000000000, -1.50000000000000 ) );
#430 = AXIS2_PLACEMENT_3D( '', #466, #467, #468 );
#431 = COLOUR_RGB( '', 0.689999997615814, 0.689999997615814, 0.689999997615814 );
#432 = COLOUR_RGB( '', 0.689999997615814, 0.689999997615814, 0.689999997615814 );
#433 = CARTESIAN_POINT( '', ( 1.20000000000000, 0.433012701892219, -0.750000000000000 ) );
#434 = VECTOR( '', #469, 1000.00000000000 );
#435 = COLOUR_RGB( '', 0.689999997615814, 0.689999997615814, 0.689999997615814 );
#436 = COLOUR_RGB( '', 0.689999997615814, 0.689999997615814, 0.689999997615814 );
#437 = DIRECTION( '', ( 0.000000000000000, -1.00000000000000, 0.000000000000000 ) );
#438 = DIRECTION( '', ( -1.00000000000000, -0.000000000000000, -0.000000000000000 ) );
#439 = DIRECTION( '', ( 0.000000000000000, -1.00000000000000, 0.000000000000000 ) );
#440 = DIRECTION( '', ( -1.00000000000000, -0.000000000000000, -0.000000000000000 ) );
#441 = CARTESIAN_POINT( '', ( 6.00000000000023, 0.000000000000000, 0.000000000000000 ) );
#442 = DIRECTION( '', ( 1.00000000000000, 0.000000000000000, -0.000000000000000 ) );
#443 = DIRECTION( '', ( -0.000000000000000, 0.000000000000000, -1.00000000000000 ) );
#444 = CARTESIAN_POINT( '', ( 6.00000000000023, 0.000000000000000, 0.000000000000000 ) );
#445 = DIRECTION( '', ( 1.00000000000000, 0.000000000000000, -0.000000000000000 ) );
#446 = DIRECTION( '', ( -0.000000000000000, 0.000000000000000, -1.00000000000000 ) );
#447 = DIRECTION( '', ( 0.000000000000000, -0.500000000000000, 0.866025403784439 ) );
#448 = DIRECTION( '', ( -1.00000000000000, -0.000000000000000, -0.000000000000000 ) );
#449 = DIRECTION( '', ( 0.000000000000000, -0.500000000000000, 0.866025403784439 ) );
#450 = DIRECTION( '', ( 0.000000000000000, 1.00000000000000, 0.000000000000000 ) );
#451 = DIRECTION( '', ( -1.00000000000000, -0.000000000000000, -0.000000000000000 ) );
#452 = DIRECTION( '', ( 0.000000000000000, 1.00000000000000, 0.000000000000000 ) );
#453 = DIRECTION( '', ( -1.00000000000000, -0.000000000000000, -0.000000000000000 ) );
#454 = DIRECTION( '', ( 0.000000000000000, 0.500000000000000, -0.866025403784439 ) );
#455 = DIRECTION( '', ( -1.00000000000000, -0.000000000000000, -0.000000000000000 ) );
#456 = DIRECTION( '', ( 0.000000000000000, 0.500000000000000, -0.866025403784439 ) );
#457 = DIRECTION( '', ( 0.000000000000000, -0.500000000000000, -0.866025403784439 ) );
#458 = DIRECTION( '', ( 0.000000000000000, -0.500000000000000, -0.866025403784439 ) );
#459 = CARTESIAN_POINT( '', ( 0.000000000000000, 0.000000000000000, 0.000000000000000 ) );
#460 = DIRECTION( '', ( 1.00000000000000, 0.000000000000000, -0.000000000000000 ) );
#461 = DIRECTION( '', ( -0.000000000000000, 0.000000000000000, -1.00000000000000 ) );
#462 = DIRECTION( '', ( 0.000000000000000, 0.500000000000000, 0.866025403784439 ) );
#463 = CARTESIAN_POINT( '', ( 5.69349999999957, 0.000000000000000, 0.000000000000000 ) );
#464 = DIRECTION( '', ( 1.00000000000000, 0.000000000000000, -0.000000000000000 ) );
#465 = DIRECTION( '', ( -0.000000000000000, 0.000000000000000, -1.00000000000000 ) );
#466 = CARTESIAN_POINT( '', ( 0.306499999999765, 0.000000000000000, 0.000000000000000 ) );
#467 = DIRECTION( '', ( 1.00000000000000, 0.000000000000000, -0.000000000000000 ) );
#468 = DIRECTION( '', ( -0.000000000000000, 0.000000000000000, -1.00000000000000 ) );
#469 = DIRECTION( '', ( 0.000000000000000, 0.500000000000000, 0.866025403784439 ) );
ENDSEC;
END-ISO-10303-21;
