ISO-10303-21;
HEADER;
FILE_DESCRIPTION( ( 'STEP AP214' ), '1' );
FILE_NAME( 'C:/\X2\684C97628D446599\X0\2019/\X2\72315B8972796A21578B5305\X0\/3.\X2\87BA7EB9680751C64EF6\X0\/1.\X2\5185516D89D2673A87BA9489\X0\ \X2\570667F15934578B\X0\/PSNY-M8-20-A.stp', '2022-03-30T08:46:11', ( '' ), ( '' ), ' ', 'PARTsolutions', ' ' );
FILE_SCHEMA( ( 'AUTOMOTIVE_DESIGN { 1 0 10303 214 1 1 1 1 }' ) );
ENDSEC;
DATA;
#1 = MECHANICAL_DESIGN_GEOMETRIC_PRESENTATION_REPRESENTATION( ' ', ( #10, #11, #12, #13, #14, #15, #16, #17, #18, #19, #20, #21, #22 ), #6 );
#2 = PRODUCT_DEFINITION_CONTEXT( '', #23, 'design' );
#3 = APPLICATION_PROTOCOL_DEFINITION( 'international standard', 'automotive_design', 2001, #23 );
#4 = PRODUCT_CATEGORY_RELATIONSHIP( 'NONE', 'NONE', #24, #25 );
#5 = SHAPE_DEFINITION_REPRESENTATION( #26, #27 );
#6 =  ( GEOMETRIC_REPRESENTATION_CONTEXT( 3 )GLOBAL_UNCERTAINTY_ASSIGNED_CONTEXT( ( #30 ) )GLOBAL_UNIT_ASSIGNED_CONTEXT( ( #32, #33, #34 ) )REPRESENTATION_CONTEXT( 'NONE', 'WORKSPACE' ) );
#10 = STYLED_ITEM( '', ( #36 ), #37 );
#11 = STYLED_ITEM( '', ( #38 ), #39 );
#12 = STYLED_ITEM( '', ( #40 ), #41 );
#13 = STYLED_ITEM( '', ( #42 ), #43 );
#14 = STYLED_ITEM( '', ( #44 ), #45 );
#15 = STYLED_ITEM( '', ( #46 ), #47 );
#16 = STYLED_ITEM( '', ( #48 ), #49 );
#17 = STYLED_ITEM( '', ( #50 ), #51 );
#18 = STYLED_ITEM( '', ( #52 ), #53 );
#19 = STYLED_ITEM( '', ( #54 ), #55 );
#20 = STYLED_ITEM( '', ( #56 ), #57 );
#21 = STYLED_ITEM( '', ( #58 ), #59 );
#22 = STYLED_ITEM( '', ( #60 ), #61 );
#23 = APPLICATION_CONTEXT( 'core data for automotive mechanical design processes' );
#24 = PRODUCT_CATEGORY( 'part', 'NONE' );
#25 = PRODUCT_RELATED_PRODUCT_CATEGORY( 'detail', ' ', ( #62 ) );
#26 = PRODUCT_DEFINITION_SHAPE( 'NONE', 'NONE', #63 );
#27 = ADVANCED_BREP_SHAPE_REPRESENTATION( '_PSNY-M8-20-A', ( #64, #65 ), #6 );
#30 = UNCERTAINTY_MEASURE_WITH_UNIT( LENGTH_MEASURE( 0.00100000000000000 ), #32, '', '' );
#32 =  ( CONVERSION_BASED_UNIT( 'MILLIMETRE', #68 )LENGTH_UNIT(  )NAMED_UNIT( #71 ) );
#33 =  ( NAMED_UNIT( #73 )PLANE_ANGLE_UNIT(  )SI_UNIT( $, .RADIAN. ) );
#34 =  ( NAMED_UNIT( #73 )SI_UNIT( $, .STERADIAN. )SOLID_ANGLE_UNIT(  ) );
#36 = PRESENTATION_STYLE_ASSIGNMENT( ( #79 ) );
#37 = ADVANCED_FACE( '', ( #80 ), #81, .F. );
#38 = PRESENTATION_STYLE_ASSIGNMENT( ( #82 ) );
#39 = ADVANCED_FACE( '', ( #83, #84 ), #85, .T. );
#40 = PRESENTATION_STYLE_ASSIGNMENT( ( #86 ) );
#41 = ADVANCED_FACE( '', ( #87, #88 ), #89, .T. );
#42 = PRESENTATION_STYLE_ASSIGNMENT( ( #90 ) );
#43 = ADVANCED_FACE( '', ( #91 ), #92, .F. );
#44 = PRESENTATION_STYLE_ASSIGNMENT( ( #93 ) );
#45 = ADVANCED_FACE( '', ( #94, #95 ), #96, .T. );
#46 = PRESENTATION_STYLE_ASSIGNMENT( ( #97 ) );
#47 = ADVANCED_FACE( '', ( #98 ), #99, .F. );
#48 = PRESENTATION_STYLE_ASSIGNMENT( ( #100 ) );
#49 = ADVANCED_FACE( '', ( #101 ), #102, .F. );
#50 = PRESENTATION_STYLE_ASSIGNMENT( ( #103 ) );
#51 = ADVANCED_FACE( '', ( #104 ), #105, .F. );
#52 = PRESENTATION_STYLE_ASSIGNMENT( ( #106 ) );
#53 = ADVANCED_FACE( '', ( #107 ), #108, .F. );
#54 = PRESENTATION_STYLE_ASSIGNMENT( ( #109 ) );
#55 = ADVANCED_FACE( '', ( #110, #111 ), #112, .F. );
#56 = PRESENTATION_STYLE_ASSIGNMENT( ( #113 ) );
#57 = ADVANCED_FACE( '', ( #114 ), #115, .F. );
#58 = PRESENTATION_STYLE_ASSIGNMENT( ( #116 ) );
#59 = ADVANCED_FACE( '', ( #117, #118 ), #119, .T. );
#60 = PRESENTATION_STYLE_ASSIGNMENT( ( #120 ) );
#61 = ADVANCED_FACE( '', ( #121 ), #122, .T. );
#62 = PRODUCT( '_PSNY-M8-20-A', '_PSNY-M8-20-A', 'PART-_PSNY-M8-20-A-DESC', ( #123 ) );
#63 = PRODUCT_DEFINITION( 'NONE', 'NONE', #124, #2 );
#64 = MANIFOLD_SOLID_BREP( '_PSNY-M8-20-A', #125 );
#65 = AXIS2_PLACEMENT_3D( '', #126, #127, #128 );
#68 = LENGTH_MEASURE_WITH_UNIT( LENGTH_MEASURE( 1.00000000000000 ), #129 );
#71 = DIMENSIONAL_EXPONENTS( 1.00000000000000, 0.00000000000000, 0.00000000000000, 0.00000000000000, 0.00000000000000, 0.00000000000000, 0.00000000000000 );
#73 = DIMENSIONAL_EXPONENTS( 0.00000000000000, 0.00000000000000, 0.00000000000000, 0.00000000000000, 0.00000000000000, 0.00000000000000, 0.00000000000000 );
#79 = SURFACE_STYLE_USAGE( .BOTH., #130 );
#80 = FACE_OUTER_BOUND( '', #131, .T. );
#81 = PLANE( '', #132 );
#82 = SURFACE_STYLE_USAGE( .BOTH., #133 );
#83 = FACE_OUTER_BOUND( '', #134, .T. );
#84 = FACE_OUTER_BOUND( '', #135, .T. );
#85 = CYLINDRICAL_SURFACE( '', #136, 4.00000000000000 );
#86 = SURFACE_STYLE_USAGE( .BOTH., #137 );
#87 = FACE_OUTER_BOUND( '', #138, .T. );
#88 = FACE_BOUND( '', #139, .T. );
#89 = CONICAL_SURFACE( '', #140, 3.23300000000000, 0.785398163400000 );
#90 = SURFACE_STYLE_USAGE( .BOTH., #141 );
#91 = FACE_OUTER_BOUND( '', #142, .T. );
#92 = PLANE( '', #143 );
#93 = SURFACE_STYLE_USAGE( .BOTH., #144 );
#94 = FACE_BOUND( '', #145, .T. );
#95 = FACE_OUTER_BOUND( '', #146, .T. );
#96 = PLANE( '', #147 );
#97 = SURFACE_STYLE_USAGE( .BOTH., #148 );
#98 = FACE_OUTER_BOUND( '', #149, .T. );
#99 = PLANE( '', #150 );
#100 = SURFACE_STYLE_USAGE( .BOTH., #151 );
#101 = FACE_OUTER_BOUND( '', #152, .T. );
#102 = PLANE( '', #153 );
#103 = SURFACE_STYLE_USAGE( .BOTH., #154 );
#104 = FACE_OUTER_BOUND( '', #155, .T. );
#105 = PLANE( '', #156 );
#106 = SURFACE_STYLE_USAGE( .BOTH., #157 );
#107 = FACE_OUTER_BOUND( '', #158, .T. );
#108 = PLANE( '', #159 );
#109 = SURFACE_STYLE_USAGE( .BOTH., #160 );
#110 = FACE_BOUND( '', #161, .T. );
#111 = FACE_OUTER_BOUND( '', #162, .T. );
#112 = PLANE( '', #163 );
#113 = SURFACE_STYLE_USAGE( .BOTH., #164 );
#114 = FACE_OUTER_BOUND( '', #165, .T. );
#115 = PLANE( '', #166 );
#116 = SURFACE_STYLE_USAGE( .BOTH., #167 );
#117 = FACE_OUTER_BOUND( '', #168, .T. );
#118 = FACE_OUTER_BOUND( '', #169, .T. );
#119 = CYLINDRICAL_SURFACE( '', #170, 6.50000000000000 );
#120 = SURFACE_STYLE_USAGE( .BOTH., #171 );
#121 = FACE_OUTER_BOUND( '', #172, .T. );
#122 = PLANE( '', #173 );
#123 = PRODUCT_CONTEXT( '', #23, 'mechanical' );
#124 = PRODUCT_DEFINITION_FORMATION_WITH_SPECIFIED_SOURCE( ' ', 'NONE', #62, .NOT_KNOWN. );
#125 = CLOSED_SHELL( '', ( #41, #47, #39, #59, #45, #55, #51, #57, #43, #37, #49, #53, #61 ) );
#126 = CARTESIAN_POINT( '', ( 0.00000000000000, 0.00000000000000, 0.00000000000000 ) );
#127 = DIRECTION( '', ( 0.00000000000000, 0.00000000000000, 1.00000000000000 ) );
#128 = DIRECTION( '', ( 1.00000000000000, 0.00000000000000, 0.00000000000000 ) );
#129 =  ( LENGTH_UNIT(  )NAMED_UNIT( #71 )SI_UNIT( .MILLI., .METRE. ) );
#130 = SURFACE_SIDE_STYLE( '', ( #175 ) );
#131 = EDGE_LOOP( '', ( #176, #177, #178, #179 ) );
#132 = AXIS2_PLACEMENT_3D( '', #180, #181, #182 );
#133 = SURFACE_SIDE_STYLE( '', ( #183 ) );
#134 = EDGE_LOOP( '', ( #184 ) );
#135 = EDGE_LOOP( '', ( #185 ) );
#136 = AXIS2_PLACEMENT_3D( '', #186, #187, #188 );
#137 = SURFACE_SIDE_STYLE( '', ( #189 ) );
#138 = EDGE_LOOP( '', ( #190 ) );
#139 = EDGE_LOOP( '', ( #191 ) );
#140 = AXIS2_PLACEMENT_3D( '', #192, #193, #194 );
#141 = SURFACE_SIDE_STYLE( '', ( #195 ) );
#142 = EDGE_LOOP( '', ( #196, #197, #198, #199 ) );
#143 = AXIS2_PLACEMENT_3D( '', #200, #201, #202 );
#144 = SURFACE_SIDE_STYLE( '', ( #203 ) );
#145 = EDGE_LOOP( '', ( #204, #205, #206, #207, #208, #209 ) );
#146 = EDGE_LOOP( '', ( #210 ) );
#147 = AXIS2_PLACEMENT_3D( '', #211, #212, #213 );
#148 = SURFACE_SIDE_STYLE( '', ( #214 ) );
#149 = EDGE_LOOP( '', ( #215 ) );
#150 = AXIS2_PLACEMENT_3D( '', #216, #217, #218 );
#151 = SURFACE_SIDE_STYLE( '', ( #219 ) );
#152 = EDGE_LOOP( '', ( #220, #221, #222, #223 ) );
#153 = AXIS2_PLACEMENT_3D( '', #224, #225, #226 );
#154 = SURFACE_SIDE_STYLE( '', ( #227 ) );
#155 = EDGE_LOOP( '', ( #228, #229, #230, #231 ) );
#156 = AXIS2_PLACEMENT_3D( '', #232, #233, #234 );
#157 = SURFACE_SIDE_STYLE( '', ( #235 ) );
#158 = EDGE_LOOP( '', ( #236, #237, #238, #239 ) );
#159 = AXIS2_PLACEMENT_3D( '', #240, #241, #242 );
#160 = SURFACE_SIDE_STYLE( '', ( #243 ) );
#161 = EDGE_LOOP( '', ( #244 ) );
#162 = EDGE_LOOP( '', ( #245 ) );
#163 = AXIS2_PLACEMENT_3D( '', #246, #247, #248 );
#164 = SURFACE_SIDE_STYLE( '', ( #249 ) );
#165 = EDGE_LOOP( '', ( #250, #251, #252, #253 ) );
#166 = AXIS2_PLACEMENT_3D( '', #254, #255, #256 );
#167 = SURFACE_SIDE_STYLE( '', ( #257 ) );
#168 = EDGE_LOOP( '', ( #258 ) );
#169 = EDGE_LOOP( '', ( #259 ) );
#170 = AXIS2_PLACEMENT_3D( '', #260, #261, #262 );
#171 = SURFACE_SIDE_STYLE( '', ( #263 ) );
#172 = EDGE_LOOP( '', ( #264, #265, #266, #267, #268, #269 ) );
#173 = AXIS2_PLACEMENT_3D( '', #270, #271, #272 );
#175 = SURFACE_STYLE_FILL_AREA( #273 );
#176 = ORIENTED_EDGE( '', *, *, #274, .T. );
#177 = ORIENTED_EDGE( '', *, *, #275, .F. );
#178 = ORIENTED_EDGE( '', *, *, #276, .F. );
#179 = ORIENTED_EDGE( '', *, *, #277, .T. );
#180 = CARTESIAN_POINT( '', ( 1.73205080756888, 22.0000000000000, 3.00000000000000 ) );
#181 = DIRECTION( '', ( 0.866025403784439, -0.00000000000000, 0.500000000000000 ) );
#182 = DIRECTION( '', ( 0.500000000000000, 0.00000000000000, -0.866025403784439 ) );
#183 = SURFACE_STYLE_FILL_AREA( #278 );
#184 = ORIENTED_EDGE( '', *, *, #279, .F. );
#185 = ORIENTED_EDGE( '', *, *, #280, .T. );
#186 = CARTESIAN_POINT( '', ( 0.00000000000000, 500.000000000000, 0.00000000000000 ) );
#187 = DIRECTION( '', ( 0.00000000000000, -1.00000000000000, -0.00000000000000 ) );
#188 = DIRECTION( '', ( 0.00000000000000, 0.00000000000000, 1.00000000000000 ) );
#189 = SURFACE_STYLE_FILL_AREA( #281 );
#190 = ORIENTED_EDGE( '', *, *, #280, .F. );
#191 = ORIENTED_EDGE( '', *, *, #282, .T. );
#192 = CARTESIAN_POINT( '', ( 0.00000000000000, 0.00000000000000, 0.00000000000000 ) );
#193 = DIRECTION( '', ( -0.00000000000000, 1.00000000000000, -0.00000000000000 ) );
#194 = DIRECTION( '', ( 0.00000000000000, 0.00000000000000, 1.00000000000000 ) );
#195 = SURFACE_STYLE_FILL_AREA( #283 );
#196 = ORIENTED_EDGE( '', *, *, #284, .T. );
#197 = ORIENTED_EDGE( '', *, *, #277, .F. );
#198 = ORIENTED_EDGE( '', *, *, #285, .F. );
#199 = ORIENTED_EDGE( '', *, *, #286, .T. );
#200 = CARTESIAN_POINT( '', ( -1.73205080756888, 22.0000000000000, 3.00000000000000 ) );
#201 = DIRECTION( '', ( 0.00000000000000, 0.00000000000000, 1.00000000000000 ) );
#202 = DIRECTION( '', ( 1.00000000000000, 0.00000000000000, -0.00000000000000 ) );
#203 = SURFACE_STYLE_FILL_AREA( #287 );
#204 = ORIENTED_EDGE( '', *, *, #288, .F. );
#205 = ORIENTED_EDGE( '', *, *, #289, .F. );
#206 = ORIENTED_EDGE( '', *, *, #290, .F. );
#207 = ORIENTED_EDGE( '', *, *, #274, .F. );
#208 = ORIENTED_EDGE( '', *, *, #284, .F. );
#209 = ORIENTED_EDGE( '', *, *, #291, .F. );
#210 = ORIENTED_EDGE( '', *, *, #292, .T. );
#211 = CARTESIAN_POINT( '', ( 0.00000000000000, 26.0000000000000, 0.00000000000000 ) );
#212 = DIRECTION( '', ( 0.00000000000000, 1.00000000000000, 0.00000000000000 ) );
#213 = DIRECTION( '', ( 0.00000000000000, -0.00000000000000, 1.00000000000000 ) );
#214 = SURFACE_STYLE_FILL_AREA( #293 );
#215 = ORIENTED_EDGE( '', *, *, #282, .F. );
#216 = CARTESIAN_POINT( '', ( 0.00000000000000, 0.00000000000000, 0.00000000000000 ) );
#217 = DIRECTION( '', ( -0.00000000000000, 1.00000000000000, 0.00000000000000 ) );
#218 = DIRECTION( '', ( 0.00000000000000, 0.00000000000000, 1.00000000000000 ) );
#219 = SURFACE_STYLE_FILL_AREA( #294 );
#220 = ORIENTED_EDGE( '', *, *, #290, .T. );
#221 = ORIENTED_EDGE( '', *, *, #295, .F. );
#222 = ORIENTED_EDGE( '', *, *, #296, .F. );
#223 = ORIENTED_EDGE( '', *, *, #275, .T. );
#224 = CARTESIAN_POINT( '', ( 3.46410161513775, 22.0000000000000, 4.44089209850063E-16 ) );
#225 = DIRECTION( '', ( 0.866025403784439, 0.00000000000000, -0.500000000000000 ) );
#226 = DIRECTION( '', ( -0.500000000000000, 0.00000000000000, -0.866025403784439 ) );
#227 = SURFACE_STYLE_FILL_AREA( #297 );
#228 = ORIENTED_EDGE( '', *, *, #288, .T. );
#229 = ORIENTED_EDGE( '', *, *, #298, .F. );
#230 = ORIENTED_EDGE( '', *, *, #299, .F. );
#231 = ORIENTED_EDGE( '', *, *, #300, .T. );
#232 = CARTESIAN_POINT( '', ( -1.73205080756888, 22.0000000000000, -3.00000000000000 ) );
#233 = DIRECTION( '', ( -0.866025403784439, 0.00000000000000, -0.500000000000000 ) );
#234 = DIRECTION( '', ( -0.500000000000000, 0.00000000000000, 0.866025403784439 ) );
#235 = SURFACE_STYLE_FILL_AREA( #301 );
#236 = ORIENTED_EDGE( '', *, *, #289, .T. );
#237 = ORIENTED_EDGE( '', *, *, #300, .F. );
#238 = ORIENTED_EDGE( '', *, *, #302, .F. );
#239 = ORIENTED_EDGE( '', *, *, #295, .T. );
#240 = CARTESIAN_POINT( '', ( 1.73205080756888, 22.0000000000000, -3.00000000000000 ) );
#241 = DIRECTION( '', ( 0.00000000000000, 0.00000000000000, -1.00000000000000 ) );
#242 = DIRECTION( '', ( -1.00000000000000, 0.00000000000000, 0.00000000000000 ) );
#243 = SURFACE_STYLE_FILL_AREA( #303 );
#244 = ORIENTED_EDGE( '', *, *, #279, .T. );
#245 = ORIENTED_EDGE( '', *, *, #304, .F. );
#246 = CARTESIAN_POINT( '', ( 0.00000000000000, 20.0000000000000, 0.00000000000000 ) );
#247 = DIRECTION( '', ( 0.00000000000000, 1.00000000000000, 0.00000000000000 ) );
#248 = DIRECTION( '', ( 0.00000000000000, -0.00000000000000, 1.00000000000000 ) );
#249 = SURFACE_STYLE_FILL_AREA( #305 );
#250 = ORIENTED_EDGE( '', *, *, #291, .T. );
#251 = ORIENTED_EDGE( '', *, *, #286, .F. );
#252 = ORIENTED_EDGE( '', *, *, #306, .F. );
#253 = ORIENTED_EDGE( '', *, *, #298, .T. );
#254 = CARTESIAN_POINT( '', ( -3.46410161513775, 22.0000000000000, -4.44089209850063E-16 ) );
#255 = DIRECTION( '', ( -0.866025403784439, 0.00000000000000, 0.500000000000000 ) );
#256 = DIRECTION( '', ( 0.500000000000000, 0.00000000000000, 0.866025403784439 ) );
#257 = SURFACE_STYLE_FILL_AREA( #307 );
#258 = ORIENTED_EDGE( '', *, *, #292, .F. );
#259 = ORIENTED_EDGE( '', *, *, #304, .T. );
#260 = CARTESIAN_POINT( '', ( 0.00000000000000, 26.0000000000000, 0.00000000000000 ) );
#261 = DIRECTION( '', ( -0.00000000000000, 1.00000000000000, 0.00000000000000 ) );
#262 = DIRECTION( '', ( 0.00000000000000, 0.00000000000000, -1.00000000000000 ) );
#263 = SURFACE_STYLE_FILL_AREA( #308 );
#264 = ORIENTED_EDGE( '', *, *, #299, .T. );
#265 = ORIENTED_EDGE( '', *, *, #306, .T. );
#266 = ORIENTED_EDGE( '', *, *, #285, .T. );
#267 = ORIENTED_EDGE( '', *, *, #276, .T. );
#268 = ORIENTED_EDGE( '', *, *, #296, .T. );
#269 = ORIENTED_EDGE( '', *, *, #302, .T. );
#270 = CARTESIAN_POINT( '', ( 0.00000000000000, 22.0000000000000, -0.00000000000000 ) );
#271 = DIRECTION( '', ( 0.00000000000000, 1.00000000000000, -0.00000000000000 ) );
#272 = DIRECTION( '', ( 0.00000000000000, 0.00000000000000, 1.00000000000000 ) );
#273 = FILL_AREA_STYLE( '', ( #309 ) );
#274 = EDGE_CURVE( '', #310, #311, #312, .T. );
#275 = EDGE_CURVE( '', #313, #311, #314, .T. );
#276 = EDGE_CURVE( '', #315, #313, #316, .T. );
#277 = EDGE_CURVE( '', #315, #310, #317, .T. );
#278 = FILL_AREA_STYLE( '', ( #318 ) );
#279 = EDGE_CURVE( '', #319, #319, #320, .T. );
#280 = EDGE_CURVE( '', #321, #321, #322, .T. );
#281 = FILL_AREA_STYLE( '', ( #323 ) );
#282 = EDGE_CURVE( '', #324, #324, #325, .T. );
#283 = FILL_AREA_STYLE( '', ( #326 ) );
#284 = EDGE_CURVE( '', #327, #310, #328, .T. );
#285 = EDGE_CURVE( '', #329, #315, #330, .T. );
#286 = EDGE_CURVE( '', #329, #327, #331, .T. );
#287 = FILL_AREA_STYLE( '', ( #332 ) );
#288 = EDGE_CURVE( '', #333, #334, #335, .T. );
#289 = EDGE_CURVE( '', #336, #333, #337, .T. );
#290 = EDGE_CURVE( '', #311, #336, #338, .T. );
#291 = EDGE_CURVE( '', #334, #327, #339, .T. );
#292 = EDGE_CURVE( '', #340, #340, #341, .T. );
#293 = FILL_AREA_STYLE( '', ( #342 ) );
#294 = FILL_AREA_STYLE( '', ( #343 ) );
#295 = EDGE_CURVE( '', #344, #336, #345, .T. );
#296 = EDGE_CURVE( '', #313, #344, #346, .T. );
#297 = FILL_AREA_STYLE( '', ( #347 ) );
#298 = EDGE_CURVE( '', #348, #334, #349, .T. );
#299 = EDGE_CURVE( '', #350, #348, #351, .T. );
#300 = EDGE_CURVE( '', #350, #333, #352, .T. );
#301 = FILL_AREA_STYLE( '', ( #353 ) );
#302 = EDGE_CURVE( '', #344, #350, #354, .T. );
#303 = FILL_AREA_STYLE( '', ( #355 ) );
#304 = EDGE_CURVE( '', #356, #356, #357, .T. );
#305 = FILL_AREA_STYLE( '', ( #358 ) );
#306 = EDGE_CURVE( '', #348, #329, #359, .T. );
#307 = FILL_AREA_STYLE( '', ( #360 ) );
#308 = FILL_AREA_STYLE( '', ( #361 ) );
#309 = FILL_AREA_STYLE_COLOUR( '', #362 );
#310 = VERTEX_POINT( '', #363 );
#311 = VERTEX_POINT( '', #364 );
#312 = LINE( '', #365, #366 );
#313 = VERTEX_POINT( '', #367 );
#314 = LINE( '', #368, #369 );
#315 = VERTEX_POINT( '', #370 );
#316 = LINE( '', #371, #372 );
#317 = LINE( '', #373, #374 );
#318 = FILL_AREA_STYLE_COLOUR( '', #375 );
#319 = VERTEX_POINT( '', #376 );
#320 = CIRCLE( '', #377, 4.00000000000000 );
#321 = VERTEX_POINT( '', #378 );
#322 = CIRCLE( '', #379, 4.00000000000000 );
#323 = FILL_AREA_STYLE_COLOUR( '', #380 );
#324 = VERTEX_POINT( '', #381 );
#325 = CIRCLE( '', #382, 3.23300000000000 );
#326 = FILL_AREA_STYLE_COLOUR( '', #383 );
#327 = VERTEX_POINT( '', #384 );
#328 = LINE( '', #385, #386 );
#329 = VERTEX_POINT( '', #387 );
#330 = LINE( '', #388, #389 );
#331 = LINE( '', #390, #391 );
#332 = FILL_AREA_STYLE_COLOUR( '', #392 );
#333 = VERTEX_POINT( '', #393 );
#334 = VERTEX_POINT( '', #394 );
#335 = LINE( '', #395, #396 );
#336 = VERTEX_POINT( '', #397 );
#337 = LINE( '', #398, #399 );
#338 = LINE( '', #400, #401 );
#339 = LINE( '', #402, #403 );
#340 = VERTEX_POINT( '', #404 );
#341 = CIRCLE( '', #405, 6.50000000000000 );
#342 = FILL_AREA_STYLE_COLOUR( '', #406 );
#343 = FILL_AREA_STYLE_COLOUR( '', #407 );
#344 = VERTEX_POINT( '', #408 );
#345 = LINE( '', #409, #410 );
#346 = LINE( '', #411, #412 );
#347 = FILL_AREA_STYLE_COLOUR( '', #413 );
#348 = VERTEX_POINT( '', #414 );
#349 = LINE( '', #415, #416 );
#350 = VERTEX_POINT( '', #417 );
#351 = LINE( '', #418, #419 );
#352 = LINE( '', #420, #421 );
#353 = FILL_AREA_STYLE_COLOUR( '', #422 );
#354 = LINE( '', #423, #424 );
#355 = FILL_AREA_STYLE_COLOUR( '', #425 );
#356 = VERTEX_POINT( '', #426 );
#357 = CIRCLE( '', #427, 6.50000000000000 );
#358 = FILL_AREA_STYLE_COLOUR( '', #428 );
#359 = LINE( '', #429, #430 );
#360 = FILL_AREA_STYLE_COLOUR( '', #431 );
#361 = FILL_AREA_STYLE_COLOUR( '', #432 );
#362 = COLOUR_RGB( '', 0.689999997600000, 0.689999997600000, 0.689999997600000 );
#363 = CARTESIAN_POINT( '', ( 1.73205080756888, 26.0000000000000, 3.00000000000000 ) );
#364 = CARTESIAN_POINT( '', ( 3.46410161513775, 26.0000000000000, 4.33680868994202E-16 ) );
#365 = CARTESIAN_POINT( '', ( 1.73205080756888, 26.0000000000000, 3.00000000000000 ) );
#366 = VECTOR( '', #433, 1000.00000000000 );
#367 = CARTESIAN_POINT( '', ( 3.46410161513775, 22.0000000000000, 4.33680868994202E-16 ) );
#368 = CARTESIAN_POINT( '', ( 3.46410161513775, 22.0000000000000, 4.33680868994202E-16 ) );
#369 = VECTOR( '', #434, 1000.00000000000 );
#370 = CARTESIAN_POINT( '', ( 1.73205080756888, 22.0000000000000, 3.00000000000000 ) );
#371 = CARTESIAN_POINT( '', ( 1.73205080756888, 22.0000000000000, 3.00000000000000 ) );
#372 = VECTOR( '', #435, 1000.00000000000 );
#373 = CARTESIAN_POINT( '', ( 1.73205080756888, 22.0000000000000, 3.00000000000000 ) );
#374 = VECTOR( '', #436, 1000.00000000000 );
#375 = COLOUR_RGB( '', 0.689999997600000, 0.689999997600000, 0.689999997600000 );
#376 = CARTESIAN_POINT( '', ( 0.00000000000000, 20.0000000000000, 4.00000000000000 ) );
#377 = AXIS2_PLACEMENT_3D( '', #437, #438, #439 );
#378 = CARTESIAN_POINT( '', ( 0.00000000000000, 0.767000000000018, 4.00000000000000 ) );
#379 = AXIS2_PLACEMENT_3D( '', #440, #441, #442 );
#380 = COLOUR_RGB( '', 0.689999997600000, 0.689999997600000, 0.689999997600000 );
#381 = CARTESIAN_POINT( '', ( 0.00000000000000, 0.00000000000000, 3.23300000000000 ) );
#382 = AXIS2_PLACEMENT_3D( '', #443, #444, #445 );
#383 = COLOUR_RGB( '', 0.689999997600000, 0.689999997600000, 0.689999997600000 );
#384 = CARTESIAN_POINT( '', ( -1.73205080756888, 26.0000000000000, 3.00000000000000 ) );
#385 = CARTESIAN_POINT( '', ( -1.73205080756888, 26.0000000000000, 3.00000000000000 ) );
#386 = VECTOR( '', #446, 1000.00000000000 );
#387 = CARTESIAN_POINT( '', ( -1.73205080756888, 22.0000000000000, 3.00000000000000 ) );
#388 = CARTESIAN_POINT( '', ( -1.73205080756888, 22.0000000000000, 3.00000000000000 ) );
#389 = VECTOR( '', #447, 1000.00000000000 );
#390 = CARTESIAN_POINT( '', ( -1.73205080756888, 22.0000000000000, 3.00000000000000 ) );
#391 = VECTOR( '', #448, 1000.00000000000 );
#392 = COLOUR_RGB( '', 0.689999997600000, 0.689999997600000, 0.689999997600000 );
#393 = CARTESIAN_POINT( '', ( -1.73205080756888, 26.0000000000000, -3.00000000000000 ) );
#394 = CARTESIAN_POINT( '', ( -3.46410161513775, 26.0000000000000, -4.44089209850063E-16 ) );
#395 = CARTESIAN_POINT( '', ( -1.73205080756888, 26.0000000000000, -3.00000000000000 ) );
#396 = VECTOR( '', #449, 1000.00000000000 );
#397 = CARTESIAN_POINT( '', ( 1.73205080756888, 26.0000000000000, -3.00000000000000 ) );
#398 = CARTESIAN_POINT( '', ( 1.73205080756888, 26.0000000000000, -3.00000000000000 ) );
#399 = VECTOR( '', #450, 1000.00000000000 );
#400 = CARTESIAN_POINT( '', ( 3.46410161513775, 26.0000000000000, 4.44089209850063E-16 ) );
#401 = VECTOR( '', #451, 1000.00000000000 );
#402 = CARTESIAN_POINT( '', ( -3.46410161513775, 26.0000000000000, -4.44089209850063E-16 ) );
#403 = VECTOR( '', #452, 1000.00000000000 );
#404 = CARTESIAN_POINT( '', ( 6.50000000000000, 26.0000000000000, 0.00000000000000 ) );
#405 = AXIS2_PLACEMENT_3D( '', #453, #454, #455 );
#406 = COLOUR_RGB( '', 0.689999997600000, 0.689999997600000, 0.689999997600000 );
#407 = COLOUR_RGB( '', 0.689999997600000, 0.689999997600000, 0.689999997600000 );
#408 = CARTESIAN_POINT( '', ( 1.73205080756888, 22.0000000000000, -3.00000000000000 ) );
#409 = CARTESIAN_POINT( '', ( 1.73205080756888, 22.0000000000000, -3.00000000000000 ) );
#410 = VECTOR( '', #456, 1000.00000000000 );
#411 = CARTESIAN_POINT( '', ( 3.46410161513775, 22.0000000000000, 4.44089209850063E-16 ) );
#412 = VECTOR( '', #457, 1000.00000000000 );
#413 = COLOUR_RGB( '', 0.689999997600000, 0.689999997600000, 0.689999997600000 );
#414 = CARTESIAN_POINT( '', ( -3.46410161513775, 22.0000000000000, -4.44089209850063E-16 ) );
#415 = CARTESIAN_POINT( '', ( -3.46410161513775, 22.0000000000000, -4.44089209850063E-16 ) );
#416 = VECTOR( '', #458, 1000.00000000000 );
#417 = CARTESIAN_POINT( '', ( -1.73205080756888, 22.0000000000000, -3.00000000000000 ) );
#418 = CARTESIAN_POINT( '', ( -1.73205080756888, 22.0000000000000, -3.00000000000000 ) );
#419 = VECTOR( '', #459, 1000.00000000000 );
#420 = CARTESIAN_POINT( '', ( -1.73205080756888, 22.0000000000000, -3.00000000000000 ) );
#421 = VECTOR( '', #460, 1000.00000000000 );
#422 = COLOUR_RGB( '', 0.689999997600000, 0.689999997600000, 0.689999997600000 );
#423 = CARTESIAN_POINT( '', ( 1.73205080756888, 22.0000000000000, -3.00000000000000 ) );
#424 = VECTOR( '', #461, 1000.00000000000 );
#425 = COLOUR_RGB( '', 0.689999997600000, 0.689999997600000, 0.689999997600000 );
#426 = CARTESIAN_POINT( '', ( 6.50000000000000, 20.0000000000000, 0.00000000000000 ) );
#427 = AXIS2_PLACEMENT_3D( '', #462, #463, #464 );
#428 = COLOUR_RGB( '', 0.689999997600000, 0.689999997600000, 0.689999997600000 );
#429 = CARTESIAN_POINT( '', ( -3.46410161513775, 22.0000000000000, -4.44089209850063E-16 ) );
#430 = VECTOR( '', #465, 1000.00000000000 );
#431 = COLOUR_RGB( '', 0.689999997600000, 0.689999997600000, 0.689999997600000 );
#432 = COLOUR_RGB( '', 0.689999997600000, 0.689999997600000, 0.689999997600000 );
#433 = DIRECTION( '', ( 0.500000000000000, 0.00000000000000, -0.866025403784439 ) );
#434 = DIRECTION( '', ( 0.00000000000000, 1.00000000000000, 0.00000000000000 ) );
#435 = DIRECTION( '', ( 0.500000000000000, 0.00000000000000, -0.866025403784439 ) );
#436 = DIRECTION( '', ( 0.00000000000000, 1.00000000000000, 0.00000000000000 ) );
#437 = CARTESIAN_POINT( '', ( 0.00000000000000, 20.0000000000000, 0.00000000000000 ) );
#438 = DIRECTION( '', ( -0.00000000000000, 1.00000000000000, 0.00000000000000 ) );
#439 = DIRECTION( '', ( 0.00000000000000, 0.00000000000000, 1.00000000000000 ) );
#440 = CARTESIAN_POINT( '', ( 0.00000000000000, 0.767000000000018, 0.00000000000000 ) );
#441 = DIRECTION( '', ( -0.00000000000000, 1.00000000000000, 0.00000000000000 ) );
#442 = DIRECTION( '', ( 0.00000000000000, 0.00000000000000, 1.00000000000000 ) );
#443 = CARTESIAN_POINT( '', ( 0.00000000000000, 0.00000000000000, 0.00000000000000 ) );
#444 = DIRECTION( '', ( -0.00000000000000, 1.00000000000000, 0.00000000000000 ) );
#445 = DIRECTION( '', ( 0.00000000000000, 0.00000000000000, 1.00000000000000 ) );
#446 = DIRECTION( '', ( 1.00000000000000, 0.00000000000000, 0.00000000000000 ) );
#447 = DIRECTION( '', ( 1.00000000000000, 0.00000000000000, 0.00000000000000 ) );
#448 = DIRECTION( '', ( 0.00000000000000, 1.00000000000000, 0.00000000000000 ) );
#449 = DIRECTION( '', ( -0.500000000000000, 0.00000000000000, 0.866025403784439 ) );
#450 = DIRECTION( '', ( -1.00000000000000, 0.00000000000000, 0.00000000000000 ) );
#451 = DIRECTION( '', ( -0.500000000000000, 0.00000000000000, -0.866025403784439 ) );
#452 = DIRECTION( '', ( 0.500000000000000, 0.00000000000000, 0.866025403784439 ) );
#453 = CARTESIAN_POINT( '', ( 0.00000000000000, 26.0000000000000, 0.00000000000000 ) );
#454 = DIRECTION( '', ( -0.00000000000000, 1.00000000000000, 0.00000000000000 ) );
#455 = DIRECTION( '', ( 1.00000000000000, 0.00000000000000, 0.00000000000000 ) );
#456 = DIRECTION( '', ( 0.00000000000000, 1.00000000000000, 0.00000000000000 ) );
#457 = DIRECTION( '', ( -0.500000000000000, 0.00000000000000, -0.866025403784439 ) );
#458 = DIRECTION( '', ( 0.00000000000000, 1.00000000000000, 0.00000000000000 ) );
#459 = DIRECTION( '', ( -0.500000000000000, 0.00000000000000, 0.866025403784439 ) );
#460 = DIRECTION( '', ( 0.00000000000000, 1.00000000000000, 0.00000000000000 ) );
#461 = DIRECTION( '', ( -1.00000000000000, 0.00000000000000, 0.00000000000000 ) );
#462 = CARTESIAN_POINT( '', ( 0.00000000000000, 20.0000000000000, 0.00000000000000 ) );
#463 = DIRECTION( '', ( -0.00000000000000, 1.00000000000000, 0.00000000000000 ) );
#464 = DIRECTION( '', ( 1.00000000000000, 0.00000000000000, 0.00000000000000 ) );
#465 = DIRECTION( '', ( 0.500000000000000, 0.00000000000000, 0.866025403784439 ) );
ENDSEC;
END-ISO-10303-21;
