ISO-10303-21;
HEADER;
FILE_DESCRIPTION((''),'2;1');
FILE_NAME('20251128_164925_PRT0001_PRT','2025-11-28T16:49:28',('ping'),(''),
'CREO PARAMETRIC BY PTC INC, 2025102','CREO PARAMETRIC BY PTC INC, 2025102','');
FILE_SCHEMA(('CONFIG_CONTROL_DESIGN'));
ENDSEC;
DATA;
#1=CARTESIAN_POINT('',(-5.138723605770E1,3.009057335343E2,0.E0));
#2=DIRECTION('',(0.E0,0.E0,1.E0));
#3=DIRECTION('',(1.E0,0.E0,0.E0));
#4=AXIS2_PLACEMENT_3D('',#1,#2,#3);
#6=CARTESIAN_POINT('',(-5.138723605770E1,3.009057335343E2,0.E0));
#7=DIRECTION('',(0.E0,0.E0,1.E0));
#8=DIRECTION('',(-1.E0,0.E0,0.E0));
#9=AXIS2_PLACEMENT_3D('',#6,#7,#8);
#11=DIRECTION('',(0.E0,0.E0,1.E0));
#12=VECTOR('',#11,1.2891E2);
#13=CARTESIAN_POINT('',(1.011683632020E2,3.009057335343E2,0.E0));
#14=LINE('',#13,#12);
#15=DIRECTION('',(0.E0,0.E0,1.E0));
#16=VECTOR('',#15,1.2891E2);
#17=CARTESIAN_POINT('',(-2.039428353174E2,3.009057335343E2,0.E0));
#18=LINE('',#17,#16);
#19=CARTESIAN_POINT('',(-5.138723605770E1,3.009057335343E2,1.2891E2));
#20=DIRECTION('',(0.E0,0.E0,1.E0));
#21=DIRECTION('',(1.E0,0.E0,0.E0));
#22=AXIS2_PLACEMENT_3D('',#19,#20,#21);
#24=CARTESIAN_POINT('',(-5.138723605770E1,3.009057335343E2,1.2891E2));
#25=DIRECTION('',(0.E0,0.E0,1.E0));
#26=DIRECTION('',(-1.E0,0.E0,0.E0));
#27=AXIS2_PLACEMENT_3D('',#24,#25,#26);
#29=CARTESIAN_POINT('',(1.011683632020E2,3.009057335343E2,0.E0));
#30=CARTESIAN_POINT('',(-2.039428353174E2,3.009057335343E2,0.E0));
#31=VERTEX_POINT('',#29);
#32=VERTEX_POINT('',#30);
#33=CARTESIAN_POINT('',(1.011683632020E2,3.009057335343E2,1.2891E2));
#34=CARTESIAN_POINT('',(-2.039428353174E2,3.009057335343E2,1.2891E2));
#35=VERTEX_POINT('',#33);
#36=VERTEX_POINT('',#34);
#37=CARTESIAN_POINT('',(0.E0,0.E0,0.E0));
#38=DIRECTION('',(0.E0,0.E0,1.E0));
#39=DIRECTION('',(1.E0,0.E0,0.E0));
#40=AXIS2_PLACEMENT_3D('',#37,#38,#39);
#41=PLANE('',#40);
#43=ORIENTED_EDGE('',*,*,#42,.T.);
#45=ORIENTED_EDGE('',*,*,#44,.T.);
#46=EDGE_LOOP('',(#43,#45));
#47=FACE_OUTER_BOUND('',#46,.F.);
#48=ADVANCED_FACE('',(#47),#41,.F.);
#49=CARTESIAN_POINT('',(-5.138723605770E1,3.009057335343E2,0.E0));
#50=DIRECTION('',(0.E0,0.E0,1.E0));
#51=DIRECTION('',(1.E0,0.E0,0.E0));
#52=AXIS2_PLACEMENT_3D('',#49,#50,#51);
#53=CYLINDRICAL_SURFACE('',#52,1.525555992597E2);
#54=ORIENTED_EDGE('',*,*,#42,.F.);
#56=ORIENTED_EDGE('',*,*,#55,.T.);
#58=ORIENTED_EDGE('',*,*,#57,.T.);
#60=ORIENTED_EDGE('',*,*,#59,.F.);
#61=EDGE_LOOP('',(#54,#56,#58,#60));
#62=FACE_OUTER_BOUND('',#61,.F.);
#63=ADVANCED_FACE('',(#62),#53,.T.);
#64=CARTESIAN_POINT('',(-5.138723605770E1,3.009057335343E2,0.E0));
#65=DIRECTION('',(0.E0,0.E0,1.E0));
#66=DIRECTION('',(1.E0,0.E0,0.E0));
#67=AXIS2_PLACEMENT_3D('',#64,#65,#66);
#68=CYLINDRICAL_SURFACE('',#67,1.525555992597E2);
#69=ORIENTED_EDGE('',*,*,#44,.F.);
#70=ORIENTED_EDGE('',*,*,#59,.T.);
#72=ORIENTED_EDGE('',*,*,#71,.T.);
#73=ORIENTED_EDGE('',*,*,#55,.F.);
#74=EDGE_LOOP('',(#69,#70,#72,#73));
#75=FACE_OUTER_BOUND('',#74,.F.);
#76=ADVANCED_FACE('',(#75),#68,.T.);
#77=CARTESIAN_POINT('',(0.E0,0.E0,1.2891E2));
#78=DIRECTION('',(0.E0,0.E0,1.E0));
#79=DIRECTION('',(1.E0,0.E0,0.E0));
#80=AXIS2_PLACEMENT_3D('',#77,#78,#79);
#81=PLANE('',#80);
#82=ORIENTED_EDGE('',*,*,#57,.F.);
#83=ORIENTED_EDGE('',*,*,#71,.F.);
#84=EDGE_LOOP('',(#82,#83));
#85=FACE_OUTER_BOUND('',#84,.F.);
#86=ADVANCED_FACE('',(#85),#81,.T.);
#89=DIMENSIONAL_EXPONENTS(1.E0,0.E0,0.E0,0.E0,0.E0,0.E0,0.E0);
#91=LENGTH_MEASURE_WITH_UNIT(LENGTH_MEASURE(2.54E1),#90);
#92=(CONVERSION_BASED_UNIT('INCH',#91)LENGTH_UNIT()NAMED_UNIT(#89));
#93=DIMENSIONAL_EXPONENTS(0.E0,0.E0,0.E0,0.E0,0.E0,0.E0,0.E0);
#95=PLANE_ANGLE_MEASURE_WITH_UNIT(PLANE_ANGLE_MEASURE(1.745329251994E-2),#94);
#96=(CONVERSION_BASED_UNIT('DEGREE',#95)NAMED_UNIT(*)PLANE_ANGLE_UNIT());
#98=UNCERTAINTY_MEASURE_WITH_UNIT(LENGTH_MEASURE(4.504893448080E-2),#92,
'closure',
'Maximum model space distance between geometric entities at asserted connectivities');
#99=(GEOMETRIC_REPRESENTATION_CONTEXT(3)GLOBAL_UNCERTAINTY_ASSIGNED_CONTEXT(
(#98))GLOBAL_UNIT_ASSIGNED_CONTEXT((#92,#96,#97))REPRESENTATION_CONTEXT('ID1',
'3'));
#101=APPLICATION_CONTEXT(
'CONFIGURATION CONTROLLED 3D DESIGNS OF MECHANICAL PARTS AND ASSEMBLIES');
#102=APPLICATION_PROTOCOL_DEFINITION('international standard',
'config_control_design',1994,#101);
#103=DESIGN_CONTEXT('',#101,'design');
#104=MECHANICAL_CONTEXT('',#101,'mechanical');
#105=PRODUCT('20251128_164925_PRT0001_PRT','20251128_164925_PRT0001_PRT',
'NOT SPECIFIED',(#104));
#106=PRODUCT_DEFINITION_FORMATION_WITH_SPECIFIED_SOURCE('1','LAST_VERSION',#105,
.MADE.);
#110=PRODUCT_CATEGORY('part','');
#111=PRODUCT_RELATED_PRODUCT_CATEGORY('detail','',(#105));
#112=PRODUCT_CATEGORY_RELATIONSHIP('','',#110,#111);
#113=SECURITY_CLASSIFICATION_LEVEL('unclassified');
#114=SECURITY_CLASSIFICATION('','',#113);
#115=CC_DESIGN_SECURITY_CLASSIFICATION(#114,(#106));
#116=APPROVAL_STATUS('approved');
#117=APPROVAL(#116,'');
#118=CC_DESIGN_APPROVAL(#117,(#114,#106,#107));
#119=CALENDAR_DATE(125,28,11);
#120=COORDINATED_UNIVERSAL_TIME_OFFSET(8,0,.AHEAD.);
#121=LOCAL_TIME(16,49,2.8E1,#120);
#122=DATE_AND_TIME(#119,#121);
#123=APPROVAL_DATE_TIME(#122,#117);
#124=DATE_TIME_ROLE('creation_date');
#125=CC_DESIGN_DATE_AND_TIME_ASSIGNMENT(#122,#124,(#107));
#126=DATE_TIME_ROLE('classification_date');
#127=CC_DESIGN_DATE_AND_TIME_ASSIGNMENT(#122,#126,(#114));
#128=PERSON('UNSPECIFIED','UNSPECIFIED',$,$,$,$);
#129=ORGANIZATION('UNSPECIFIED','UNSPECIFIED','UNSPECIFIED');
#130=PERSON_AND_ORGANIZATION(#128,#129);
#131=APPROVAL_ROLE('approver');
#132=APPROVAL_PERSON_ORGANIZATION(#130,#117,#131);
#133=PERSON_AND_ORGANIZATION_ROLE('creator');
#134=CC_DESIGN_PERSON_AND_ORGANIZATION_ASSIGNMENT(#130,#133,(#106,#107));
#135=PERSON_AND_ORGANIZATION_ROLE('design_supplier');
#136=CC_DESIGN_PERSON_AND_ORGANIZATION_ASSIGNMENT(#130,#135,(#106));
#137=PERSON_AND_ORGANIZATION_ROLE('classification_officer');
#138=CC_DESIGN_PERSON_AND_ORGANIZATION_ASSIGNMENT(#130,#137,(#114));
#139=PERSON_AND_ORGANIZATION_ROLE('design_owner');
#140=CC_DESIGN_PERSON_AND_ORGANIZATION_ASSIGNMENT(#130,#139,(#105));
#5=CIRCLE('',#4,1.525555992597E2);
#10=CIRCLE('',#9,1.525555992597E2);
#23=CIRCLE('',#22,1.525555992597E2);
#28=CIRCLE('',#27,1.525555992597E2);
#42=EDGE_CURVE('',#31,#32,#5,.T.);
#44=EDGE_CURVE('',#32,#31,#10,.T.);
#55=EDGE_CURVE('',#31,#35,#14,.T.);
#57=EDGE_CURVE('',#35,#36,#23,.T.);
#59=EDGE_CURVE('',#32,#36,#18,.T.);
#71=EDGE_CURVE('',#36,#35,#28,.T.);
#87=CLOSED_SHELL('',(#48,#63,#76,#86));
#88=MANIFOLD_SOLID_BREP('',#87);
#90=(LENGTH_UNIT()NAMED_UNIT(*)SI_UNIT(.MILLI.,.METRE.));
#94=(NAMED_UNIT(*)PLANE_ANGLE_UNIT()SI_UNIT($,.RADIAN.));
#97=(NAMED_UNIT(*)SI_UNIT($,.STERADIAN.)SOLID_ANGLE_UNIT());
#100=ADVANCED_BREP_SHAPE_REPRESENTATION('',(#88),#99);
#107=PRODUCT_DEFINITION('design','',#106,#103);
#108=PRODUCT_DEFINITION_SHAPE('','SHAPE FOR 20251128_164925_PRT0001_PRT.',#107);
#109=SHAPE_DEFINITION_REPRESENTATION(#108,#100);
ENDSEC;
END-ISO-10303-21;
