ISO-10303-21;
HEADER;
FILE_DESCRIPTION((''),'2;1');
FILE_NAME('20251201_105821_H1_PRT','2025-12-01T10:58:51',('ping'),(''),
'CREO PARAMETRIC BY PTC INC, 2025102','CREO PARAMETRIC BY PTC INC, 2025102','');
FILE_SCHEMA(('CONFIG_CONTROL_DESIGN'));
ENDSEC;
DATA;
#2=DIRECTION('',(0.E0,-1.E0,0.E0));
#3=VECTOR('',#2,1.2E2);
#4=CARTESIAN_POINT('',(-1.2E2,5.5E1,0.E0));
#5=LINE('',#4,#3);
#6=DIRECTION('',(0.E0,0.E0,-1.E0));
#7=VECTOR('',#6,4.E1);
#8=CARTESIAN_POINT('',(-1.2E2,5.5E1,4.E1));
#9=LINE('',#8,#7);
#10=DIRECTION('',(0.E0,1.E0,0.E0));
#11=VECTOR('',#10,1.2E2);
#12=CARTESIAN_POINT('',(-1.2E2,-6.5E1,4.E1));
#13=LINE('',#12,#11);
#14=DIRECTION('',(0.E0,0.E0,1.E0));
#15=VECTOR('',#14,4.E1);
#16=CARTESIAN_POINT('',(-1.2E2,-6.5E1,0.E0));
#17=LINE('',#16,#15);
#18=CARTESIAN_POINT('',(-3.374965445454E1,-2.513728424542E1,0.E0));
#19=DIRECTION('',(0.E0,0.E0,1.E0));
#20=DIRECTION('',(1.E0,0.E0,0.E0));
#21=AXIS2_PLACEMENT_3D('',#18,#19,#20);
#23=CARTESIAN_POINT('',(-3.374965445454E1,-2.513728424542E1,0.E0));
#24=DIRECTION('',(0.E0,0.E0,1.E0));
#25=DIRECTION('',(-1.E0,0.E0,0.E0));
#26=AXIS2_PLACEMENT_3D('',#23,#24,#25);
#28=CARTESIAN_POINT('',(5.520677544610E1,-3.809839214470E1,0.E0));
#29=DIRECTION('',(0.E0,0.E0,1.E0));
#30=DIRECTION('',(1.E0,0.E0,0.E0));
#31=AXIS2_PLACEMENT_3D('',#28,#29,#30);
#33=CARTESIAN_POINT('',(5.520677544610E1,-3.809839214470E1,0.E0));
#34=DIRECTION('',(0.E0,0.E0,1.E0));
#35=DIRECTION('',(-1.E0,0.E0,0.E0));
#36=AXIS2_PLACEMENT_3D('',#33,#34,#35);
#38=CARTESIAN_POINT('',(1.092801474886E2,-2.853587744599E1,0.E0));
#39=DIRECTION('',(0.E0,0.E0,1.E0));
#40=DIRECTION('',(1.E0,0.E0,0.E0));
#41=AXIS2_PLACEMENT_3D('',#38,#39,#40);
#43=CARTESIAN_POINT('',(1.092801474886E2,-2.853587744599E1,0.E0));
#44=DIRECTION('',(0.E0,0.E0,1.E0));
#45=DIRECTION('',(-1.E0,0.E0,0.E0));
#46=AXIS2_PLACEMENT_3D('',#43,#44,#45);
#48=CARTESIAN_POINT('',(6.757247048412E1,2.884163856869E1,0.E0));
#49=DIRECTION('',(0.E0,0.E0,1.E0));
#50=DIRECTION('',(1.E0,0.E0,0.E0));
#51=AXIS2_PLACEMENT_3D('',#48,#49,#50);
#53=CARTESIAN_POINT('',(6.757247048412E1,2.884163856869E1,0.E0));
#54=DIRECTION('',(0.E0,0.E0,1.E0));
#55=DIRECTION('',(-1.E0,0.E0,0.E0));
#56=AXIS2_PLACEMENT_3D('',#53,#54,#55);
#58=CARTESIAN_POINT('',(-3.374965445454E1,-2.513728424542E1,3.5E1));
#59=DIRECTION('',(0.E0,0.E0,-1.E0));
#60=DIRECTION('',(1.E0,0.E0,0.E0));
#61=AXIS2_PLACEMENT_3D('',#58,#59,#60);
#63=CARTESIAN_POINT('',(-3.374965445454E1,-2.513728424542E1,3.5E1));
#64=DIRECTION('',(0.E0,0.E0,-1.E0));
#65=DIRECTION('',(-1.E0,0.E0,0.E0));
#66=AXIS2_PLACEMENT_3D('',#63,#64,#65);
#68=DIRECTION('',(0.E0,0.E0,1.E0));
#69=VECTOR('',#68,3.5E1);
#70=CARTESIAN_POINT('',(-3.974965445454E1,-2.513728424542E1,0.E0));
#71=LINE('',#70,#69);
#72=DIRECTION('',(0.E0,0.E0,1.E0));
#73=VECTOR('',#72,3.5E1);
#74=CARTESIAN_POINT('',(-2.774965445454E1,-2.513728424542E1,0.E0));
#75=LINE('',#74,#73);
#76=CARTESIAN_POINT('',(5.520677544610E1,-3.809839214470E1,3.E1));
#77=DIRECTION('',(0.E0,0.E0,-1.E0));
#78=DIRECTION('',(1.E0,0.E0,0.E0));
#79=AXIS2_PLACEMENT_3D('',#76,#77,#78);
#81=CARTESIAN_POINT('',(5.520677544610E1,-3.809839214470E1,3.E1));
#82=DIRECTION('',(0.E0,0.E0,-1.E0));
#83=DIRECTION('',(-1.E0,0.E0,0.E0));
#84=AXIS2_PLACEMENT_3D('',#81,#82,#83);
#86=DIRECTION('',(0.E0,0.E0,1.E0));
#87=VECTOR('',#86,3.E1);
#88=CARTESIAN_POINT('',(4.720677544610E1,-3.809839214470E1,0.E0));
#89=LINE('',#88,#87);
#90=DIRECTION('',(0.E0,0.E0,1.E0));
#91=VECTOR('',#90,3.E1);
#92=CARTESIAN_POINT('',(6.320677544610E1,-3.809839214470E1,0.E0));
#93=LINE('',#92,#91);
#94=CARTESIAN_POINT('',(1.092801474886E2,-2.853587744599E1,4.E1));
#95=DIRECTION('',(0.E0,0.E0,-1.E0));
#96=DIRECTION('',(1.E0,0.E0,0.E0));
#97=AXIS2_PLACEMENT_3D('',#94,#95,#96);
#99=CARTESIAN_POINT('',(1.092801474886E2,-2.853587744599E1,4.E1));
#100=DIRECTION('',(0.E0,0.E0,-1.E0));
#101=DIRECTION('',(-1.E0,0.E0,0.E0));
#102=AXIS2_PLACEMENT_3D('',#99,#100,#101);
#104=CARTESIAN_POINT('',(6.757247048412E1,2.884163856869E1,4.E1));
#105=DIRECTION('',(0.E0,0.E0,-1.E0));
#106=DIRECTION('',(1.E0,0.E0,0.E0));
#107=AXIS2_PLACEMENT_3D('',#104,#105,#106);
#109=CARTESIAN_POINT('',(6.757247048412E1,2.884163856869E1,4.E1));
#110=DIRECTION('',(0.E0,0.E0,-1.E0));
#111=DIRECTION('',(-1.E0,0.E0,0.E0));
#112=AXIS2_PLACEMENT_3D('',#109,#110,#111);
#114=DIRECTION('',(0.E0,0.E0,1.E0));
#115=VECTOR('',#114,4.E1);
#116=CARTESIAN_POINT('',(1.042801474886E2,-2.853587744599E1,0.E0));
#117=LINE('',#116,#115);
#118=DIRECTION('',(0.E0,0.E0,1.E0));
#119=VECTOR('',#118,4.E1);
#120=CARTESIAN_POINT('',(1.142801474886E2,-2.853587744599E1,0.E0));
#121=LINE('',#120,#119);
#122=DIRECTION('',(0.E0,0.E0,1.E0));
#123=VECTOR('',#122,4.E1);
#124=CARTESIAN_POINT('',(5.157247048412E1,2.884163856869E1,0.E0));
#125=LINE('',#124,#123);
#126=DIRECTION('',(0.E0,0.E0,1.E0));
#127=VECTOR('',#126,4.E1);
#128=CARTESIAN_POINT('',(8.357247048412E1,2.884163856869E1,0.E0));
#129=LINE('',#128,#127);
#130=DIRECTION('',(-1.E0,0.E0,0.E0));
#131=VECTOR('',#130,2.75E2);
#132=CARTESIAN_POINT('',(1.55E2,5.5E1,0.E0));
#133=LINE('',#132,#131);
#134=DIRECTION('',(1.E0,0.E0,0.E0));
#135=VECTOR('',#134,2.75E2);
#136=CARTESIAN_POINT('',(-1.2E2,5.5E1,4.E1));
#137=LINE('',#136,#135);
#138=DIRECTION('',(0.E0,1.E0,0.E0));
#139=VECTOR('',#138,1.2E2);
#140=CARTESIAN_POINT('',(1.55E2,-6.5E1,0.E0));
#141=LINE('',#140,#139);
#142=DIRECTION('',(0.E0,-1.E0,0.E0));
#143=VECTOR('',#142,1.2E2);
#144=CARTESIAN_POINT('',(1.55E2,5.5E1,4.E1));
#145=LINE('',#144,#143);
#146=DIRECTION('',(0.E0,0.E0,1.E0));
#147=VECTOR('',#146,4.E1);
#148=CARTESIAN_POINT('',(1.55E2,5.5E1,0.E0));
#149=LINE('',#148,#147);
#150=DIRECTION('',(1.E0,0.E0,0.E0));
#151=VECTOR('',#150,2.75E2);
#152=CARTESIAN_POINT('',(-1.2E2,-6.5E1,0.E0));
#153=LINE('',#152,#151);
#154=DIRECTION('',(-1.E0,0.E0,0.E0));
#155=VECTOR('',#154,2.75E2);
#156=CARTESIAN_POINT('',(1.55E2,-6.5E1,4.E1));
#157=LINE('',#156,#155);
#158=DIRECTION('',(0.E0,0.E0,1.E0));
#159=VECTOR('',#158,4.E1);
#160=CARTESIAN_POINT('',(1.55E2,-6.5E1,0.E0));
#161=LINE('',#160,#159);
#162=CARTESIAN_POINT('',(-1.2E2,-6.5E1,0.E0));
#163=CARTESIAN_POINT('',(-1.2E2,-6.5E1,4.E1));
#164=VERTEX_POINT('',#162);
#165=VERTEX_POINT('',#163);
#166=CARTESIAN_POINT('',(-1.2E2,5.5E1,4.E1));
#167=CARTESIAN_POINT('',(-1.2E2,5.5E1,0.E0));
#168=VERTEX_POINT('',#166);
#169=VERTEX_POINT('',#167);
#170=CARTESIAN_POINT('',(1.55E2,-6.5E1,0.E0));
#171=CARTESIAN_POINT('',(1.55E2,-6.5E1,4.E1));
#172=VERTEX_POINT('',#170);
#173=VERTEX_POINT('',#171);
#174=CARTESIAN_POINT('',(1.55E2,5.5E1,4.E1));
#175=VERTEX_POINT('',#174);
#176=CARTESIAN_POINT('',(1.55E2,5.5E1,0.E0));
#177=VERTEX_POINT('',#176);
#178=CARTESIAN_POINT('',(-2.774965445454E1,-2.513728424542E1,0.E0));
#179=CARTESIAN_POINT('',(-2.774965445454E1,-2.513728424542E1,3.5E1));
#180=VERTEX_POINT('',#178);
#181=VERTEX_POINT('',#179);
#182=CARTESIAN_POINT('',(-3.974965445454E1,-2.513728424542E1,0.E0));
#183=CARTESIAN_POINT('',(-3.974965445454E1,-2.513728424542E1,3.5E1));
#184=VERTEX_POINT('',#182);
#185=VERTEX_POINT('',#183);
#186=CARTESIAN_POINT('',(8.357247048412E1,2.884163856869E1,0.E0));
#187=CARTESIAN_POINT('',(8.357247048412E1,2.884163856869E1,4.E1));
#188=VERTEX_POINT('',#186);
#189=VERTEX_POINT('',#187);
#190=CARTESIAN_POINT('',(5.157247048412E1,2.884163856869E1,0.E0));
#191=CARTESIAN_POINT('',(5.157247048412E1,2.884163856869E1,4.E1));
#192=VERTEX_POINT('',#190);
#193=VERTEX_POINT('',#191);
#194=CARTESIAN_POINT('',(1.142801474886E2,-2.853587744599E1,0.E0));
#195=CARTESIAN_POINT('',(1.142801474886E2,-2.853587744599E1,4.E1));
#196=VERTEX_POINT('',#194);
#197=VERTEX_POINT('',#195);
#198=CARTESIAN_POINT('',(1.042801474886E2,-2.853587744599E1,0.E0));
#199=CARTESIAN_POINT('',(1.042801474886E2,-2.853587744599E1,4.E1));
#200=VERTEX_POINT('',#198);
#201=VERTEX_POINT('',#199);
#202=CARTESIAN_POINT('',(6.320677544610E1,-3.809839214470E1,0.E0));
#203=CARTESIAN_POINT('',(6.320677544610E1,-3.809839214470E1,3.E1));
#204=VERTEX_POINT('',#202);
#205=VERTEX_POINT('',#203);
#206=CARTESIAN_POINT('',(4.720677544610E1,-3.809839214470E1,0.E0));
#207=CARTESIAN_POINT('',(4.720677544610E1,-3.809839214470E1,3.E1));
#208=VERTEX_POINT('',#206);
#209=VERTEX_POINT('',#207);
#210=CARTESIAN_POINT('',(-1.2E2,5.5E1,4.E1));
#211=DIRECTION('',(1.E0,0.E0,0.E0));
#212=DIRECTION('',(0.E0,0.E0,-1.E0));
#213=AXIS2_PLACEMENT_3D('',#210,#211,#212);
#214=PLANE('',#213);
#216=ORIENTED_EDGE('',*,*,#215,.F.);
#218=ORIENTED_EDGE('',*,*,#217,.F.);
#220=ORIENTED_EDGE('',*,*,#219,.F.);
#222=ORIENTED_EDGE('',*,*,#221,.F.);
#223=EDGE_LOOP('',(#216,#218,#220,#222));
#224=FACE_OUTER_BOUND('',#223,.F.);
#225=ADVANCED_FACE('',(#224),#214,.F.);
#226=CARTESIAN_POINT('',(0.E0,0.E0,0.E0));
#227=DIRECTION('',(0.E0,0.E0,1.E0));
#228=DIRECTION('',(1.E0,0.E0,0.E0));
#229=AXIS2_PLACEMENT_3D('',#226,#227,#228);
#230=PLANE('',#229);
#231=ORIENTED_EDGE('',*,*,#215,.T.);
#233=ORIENTED_EDGE('',*,*,#232,.T.);
#235=ORIENTED_EDGE('',*,*,#234,.T.);
#237=ORIENTED_EDGE('',*,*,#236,.T.);
#238=EDGE_LOOP('',(#231,#233,#235,#237));
#239=FACE_OUTER_BOUND('',#238,.F.);
#241=ORIENTED_EDGE('',*,*,#240,.F.);
#243=ORIENTED_EDGE('',*,*,#242,.F.);
#244=EDGE_LOOP('',(#241,#243));
#245=FACE_BOUND('',#244,.F.);
#247=ORIENTED_EDGE('',*,*,#246,.F.);
#249=ORIENTED_EDGE('',*,*,#248,.F.);
#250=EDGE_LOOP('',(#247,#249));
#251=FACE_BOUND('',#250,.F.);
#253=ORIENTED_EDGE('',*,*,#252,.F.);
#255=ORIENTED_EDGE('',*,*,#254,.F.);
#256=EDGE_LOOP('',(#253,#255));
#257=FACE_BOUND('',#256,.F.);
#259=ORIENTED_EDGE('',*,*,#258,.F.);
#261=ORIENTED_EDGE('',*,*,#260,.F.);
#262=EDGE_LOOP('',(#259,#261));
#263=FACE_BOUND('',#262,.F.);
#264=ADVANCED_FACE('',(#239,#245,#251,#257,#263),#230,.F.);
#265=CARTESIAN_POINT('',(-3.374965445454E1,-2.513728424542E1,0.E0));
#266=DIRECTION('',(0.E0,0.E0,1.E0));
#267=DIRECTION('',(1.E0,0.E0,0.E0));
#268=AXIS2_PLACEMENT_3D('',#265,#266,#267);
#269=CYLINDRICAL_SURFACE('',#268,6.E0);
#271=ORIENTED_EDGE('',*,*,#270,.T.);
#273=ORIENTED_EDGE('',*,*,#272,.F.);
#274=ORIENTED_EDGE('',*,*,#258,.T.);
#276=ORIENTED_EDGE('',*,*,#275,.T.);
#277=EDGE_LOOP('',(#271,#273,#274,#276));
#278=FACE_OUTER_BOUND('',#277,.F.);
#279=ADVANCED_FACE('',(#278),#269,.F.);
#280=CARTESIAN_POINT('',(-3.374965445454E1,-2.513728424542E1,3.5E1));
#281=DIRECTION('',(0.E0,0.E0,1.E0));
#282=DIRECTION('',(1.E0,0.E0,0.E0));
#283=AXIS2_PLACEMENT_3D('',#280,#281,#282);
#284=PLANE('',#283);
#286=ORIENTED_EDGE('',*,*,#285,.F.);
#287=ORIENTED_EDGE('',*,*,#270,.F.);
#288=EDGE_LOOP('',(#286,#287));
#289=FACE_OUTER_BOUND('',#288,.F.);
#290=ADVANCED_FACE('',(#289),#284,.F.);
#291=CARTESIAN_POINT('',(-3.374965445454E1,-2.513728424542E1,0.E0));
#292=DIRECTION('',(0.E0,0.E0,1.E0));
#293=DIRECTION('',(1.E0,0.E0,0.E0));
#294=AXIS2_PLACEMENT_3D('',#291,#292,#293);
#295=CYLINDRICAL_SURFACE('',#294,6.E0);
#296=ORIENTED_EDGE('',*,*,#285,.T.);
#297=ORIENTED_EDGE('',*,*,#275,.F.);
#298=ORIENTED_EDGE('',*,*,#260,.T.);
#299=ORIENTED_EDGE('',*,*,#272,.T.);
#300=EDGE_LOOP('',(#296,#297,#298,#299));
#301=FACE_OUTER_BOUND('',#300,.F.);
#302=ADVANCED_FACE('',(#301),#295,.F.);
#303=CARTESIAN_POINT('',(5.520677544610E1,-3.809839214470E1,0.E0));
#304=DIRECTION('',(0.E0,0.E0,1.E0));
#305=DIRECTION('',(1.E0,0.E0,0.E0));
#306=AXIS2_PLACEMENT_3D('',#303,#304,#305);
#307=CYLINDRICAL_SURFACE('',#306,8.E0);
#309=ORIENTED_EDGE('',*,*,#308,.T.);
#311=ORIENTED_EDGE('',*,*,#310,.F.);
#312=ORIENTED_EDGE('',*,*,#240,.T.);
#314=ORIENTED_EDGE('',*,*,#313,.T.);
#315=EDGE_LOOP('',(#309,#311,#312,#314));
#316=FACE_OUTER_BOUND('',#315,.F.);
#317=ADVANCED_FACE('',(#316),#307,.F.);
#318=CARTESIAN_POINT('',(5.520677544610E1,-3.809839214470E1,3.E1));
#319=DIRECTION('',(0.E0,0.E0,1.E0));
#320=DIRECTION('',(1.E0,0.E0,0.E0));
#321=AXIS2_PLACEMENT_3D('',#318,#319,#320);
#322=PLANE('',#321);
#324=ORIENTED_EDGE('',*,*,#323,.F.);
#325=ORIENTED_EDGE('',*,*,#308,.F.);
#326=EDGE_LOOP('',(#324,#325));
#327=FACE_OUTER_BOUND('',#326,.F.);
#328=ADVANCED_FACE('',(#327),#322,.F.);
#329=CARTESIAN_POINT('',(5.520677544610E1,-3.809839214470E1,0.E0));
#330=DIRECTION('',(0.E0,0.E0,1.E0));
#331=DIRECTION('',(1.E0,0.E0,0.E0));
#332=AXIS2_PLACEMENT_3D('',#329,#330,#331);
#333=CYLINDRICAL_SURFACE('',#332,8.E0);
#334=ORIENTED_EDGE('',*,*,#323,.T.);
#335=ORIENTED_EDGE('',*,*,#313,.F.);
#336=ORIENTED_EDGE('',*,*,#242,.T.);
#337=ORIENTED_EDGE('',*,*,#310,.T.);
#338=EDGE_LOOP('',(#334,#335,#336,#337));
#339=FACE_OUTER_BOUND('',#338,.F.);
#340=ADVANCED_FACE('',(#339),#333,.F.);
#341=CARTESIAN_POINT('',(1.092801474886E2,-2.853587744599E1,0.E0));
#342=DIRECTION('',(0.E0,0.E0,1.E0));
#343=DIRECTION('',(1.E0,0.E0,0.E0));
#344=AXIS2_PLACEMENT_3D('',#341,#342,#343);
#345=CYLINDRICAL_SURFACE('',#344,5.E0);
#347=ORIENTED_EDGE('',*,*,#346,.T.);
#349=ORIENTED_EDGE('',*,*,#348,.F.);
#350=ORIENTED_EDGE('',*,*,#246,.T.);
#352=ORIENTED_EDGE('',*,*,#351,.T.);
#353=EDGE_LOOP('',(#347,#349,#350,#352));
#354=FACE_OUTER_BOUND('',#353,.F.);
#355=ADVANCED_FACE('',(#354),#345,.F.);
#356=CARTESIAN_POINT('',(0.E0,0.E0,4.E1));
#357=DIRECTION('',(0.E0,0.E0,1.E0));
#358=DIRECTION('',(1.E0,0.E0,0.E0));
#359=AXIS2_PLACEMENT_3D('',#356,#357,#358);
#360=PLANE('',#359);
#361=ORIENTED_EDGE('',*,*,#219,.T.);
#363=ORIENTED_EDGE('',*,*,#362,.T.);
#365=ORIENTED_EDGE('',*,*,#364,.T.);
#367=ORIENTED_EDGE('',*,*,#366,.T.);
#368=EDGE_LOOP('',(#361,#363,#365,#367));
#369=FACE_OUTER_BOUND('',#368,.F.);
#371=ORIENTED_EDGE('',*,*,#370,.F.);
#373=ORIENTED_EDGE('',*,*,#372,.F.);
#374=EDGE_LOOP('',(#371,#373));
#375=FACE_BOUND('',#374,.F.);
#377=ORIENTED_EDGE('',*,*,#376,.F.);
#378=ORIENTED_EDGE('',*,*,#346,.F.);
#379=EDGE_LOOP('',(#377,#378));
#380=FACE_BOUND('',#379,.F.);
#381=ADVANCED_FACE('',(#369,#375,#380),#360,.T.);
#382=CARTESIAN_POINT('',(1.092801474886E2,-2.853587744599E1,0.E0));
#383=DIRECTION('',(0.E0,0.E0,1.E0));
#384=DIRECTION('',(1.E0,0.E0,0.E0));
#385=AXIS2_PLACEMENT_3D('',#382,#383,#384);
#386=CYLINDRICAL_SURFACE('',#385,5.E0);
#387=ORIENTED_EDGE('',*,*,#376,.T.);
#388=ORIENTED_EDGE('',*,*,#351,.F.);
#389=ORIENTED_EDGE('',*,*,#248,.T.);
#390=ORIENTED_EDGE('',*,*,#348,.T.);
#391=EDGE_LOOP('',(#387,#388,#389,#390));
#392=FACE_OUTER_BOUND('',#391,.F.);
#393=ADVANCED_FACE('',(#392),#386,.F.);
#394=CARTESIAN_POINT('',(6.757247048412E1,2.884163856869E1,0.E0));
#395=DIRECTION('',(0.E0,0.E0,1.E0));
#396=DIRECTION('',(1.E0,0.E0,0.E0));
#397=AXIS2_PLACEMENT_3D('',#394,#395,#396);
#398=CYLINDRICAL_SURFACE('',#397,1.6E1);
#399=ORIENTED_EDGE('',*,*,#370,.T.);
#401=ORIENTED_EDGE('',*,*,#400,.F.);
#402=ORIENTED_EDGE('',*,*,#254,.T.);
#404=ORIENTED_EDGE('',*,*,#403,.T.);
#405=EDGE_LOOP('',(#399,#401,#402,#404));
#406=FACE_OUTER_BOUND('',#405,.F.);
#407=ADVANCED_FACE('',(#406),#398,.F.);
#408=CARTESIAN_POINT('',(6.757247048412E1,2.884163856869E1,0.E0));
#409=DIRECTION('',(0.E0,0.E0,1.E0));
#410=DIRECTION('',(1.E0,0.E0,0.E0));
#411=AXIS2_PLACEMENT_3D('',#408,#409,#410);
#412=CYLINDRICAL_SURFACE('',#411,1.6E1);
#413=ORIENTED_EDGE('',*,*,#372,.T.);
#414=ORIENTED_EDGE('',*,*,#403,.F.);
#415=ORIENTED_EDGE('',*,*,#252,.T.);
#416=ORIENTED_EDGE('',*,*,#400,.T.);
#417=EDGE_LOOP('',(#413,#414,#415,#416));
#418=FACE_OUTER_BOUND('',#417,.F.);
#419=ADVANCED_FACE('',(#418),#412,.F.);
#420=CARTESIAN_POINT('',(1.55E2,5.5E1,4.E1));
#421=DIRECTION('',(0.E0,-1.E0,0.E0));
#422=DIRECTION('',(0.E0,0.E0,-1.E0));
#423=AXIS2_PLACEMENT_3D('',#420,#421,#422);
#424=PLANE('',#423);
#425=ORIENTED_EDGE('',*,*,#236,.F.);
#427=ORIENTED_EDGE('',*,*,#426,.T.);
#428=ORIENTED_EDGE('',*,*,#362,.F.);
#429=ORIENTED_EDGE('',*,*,#217,.T.);
#430=EDGE_LOOP('',(#425,#427,#428,#429));
#431=FACE_OUTER_BOUND('',#430,.F.);
#432=ADVANCED_FACE('',(#431),#424,.F.);
#433=CARTESIAN_POINT('',(1.55E2,-6.5E1,4.E1));
#434=DIRECTION('',(-1.E0,0.E0,0.E0));
#435=DIRECTION('',(0.E0,0.E0,1.E0));
#436=AXIS2_PLACEMENT_3D('',#433,#434,#435);
#437=PLANE('',#436);
#438=ORIENTED_EDGE('',*,*,#234,.F.);
#440=ORIENTED_EDGE('',*,*,#439,.T.);
#441=ORIENTED_EDGE('',*,*,#364,.F.);
#442=ORIENTED_EDGE('',*,*,#426,.F.);
#443=EDGE_LOOP('',(#438,#440,#441,#442));
#444=FACE_OUTER_BOUND('',#443,.F.);
#445=ADVANCED_FACE('',(#444),#437,.F.);
#446=CARTESIAN_POINT('',(-1.2E2,-6.5E1,4.E1));
#447=DIRECTION('',(0.E0,1.E0,0.E0));
#448=DIRECTION('',(0.E0,0.E0,1.E0));
#449=AXIS2_PLACEMENT_3D('',#446,#447,#448);
#450=PLANE('',#449);
#451=ORIENTED_EDGE('',*,*,#232,.F.);
#452=ORIENTED_EDGE('',*,*,#221,.T.);
#453=ORIENTED_EDGE('',*,*,#366,.F.);
#454=ORIENTED_EDGE('',*,*,#439,.F.);
#455=EDGE_LOOP('',(#451,#452,#453,#454));
#456=FACE_OUTER_BOUND('',#455,.F.);
#457=ADVANCED_FACE('',(#456),#450,.F.);
#461=DIMENSIONAL_EXPONENTS(0.E0,0.E0,0.E0,0.E0,0.E0,0.E0,0.E0);
#463=PLANE_ANGLE_MEASURE_WITH_UNIT(PLANE_ANGLE_MEASURE(1.745329251994E-2),#462);
#464=(CONVERSION_BASED_UNIT('DEGREE',#463)NAMED_UNIT(*)PLANE_ANGLE_UNIT());
#466=UNCERTAINTY_MEASURE_WITH_UNIT(LENGTH_MEASURE(3.026841095046E-2),#460,
'closure',
'Maximum model space distance between geometric entities at asserted connectivities');
#467=(GEOMETRIC_REPRESENTATION_CONTEXT(3)GLOBAL_UNCERTAINTY_ASSIGNED_CONTEXT((
#466))GLOBAL_UNIT_ASSIGNED_CONTEXT((#460,#464,#465))REPRESENTATION_CONTEXT
('ID1','3'));
#469=APPLICATION_CONTEXT(
'CONFIGURATION CONTROLLED 3D DESIGNS OF MECHANICAL PARTS AND ASSEMBLIES');
#470=APPLICATION_PROTOCOL_DEFINITION('international standard',
'config_control_design',1994,#469);
#471=DESIGN_CONTEXT('',#469,'design');
#472=MECHANICAL_CONTEXT('',#469,'mechanical');
#473=PRODUCT('20251201_105821_H1_PRT','20251201_105821_H1_PRT','NOT SPECIFIED',(
#472));
#474=PRODUCT_DEFINITION_FORMATION_WITH_SPECIFIED_SOURCE('1','LAST_VERSION',#473,
.MADE.);
#478=PRODUCT_CATEGORY('part','');
#479=PRODUCT_RELATED_PRODUCT_CATEGORY('detail','',(#473));
#480=PRODUCT_CATEGORY_RELATIONSHIP('','',#478,#479);
#481=SECURITY_CLASSIFICATION_LEVEL('unclassified');
#482=SECURITY_CLASSIFICATION('','',#481);
#483=CC_DESIGN_SECURITY_CLASSIFICATION(#482,(#474));
#484=APPROVAL_STATUS('approved');
#485=APPROVAL(#484,'');
#486=CC_DESIGN_APPROVAL(#485,(#482,#474,#475));
#487=CALENDAR_DATE(125,1,12);
#488=COORDINATED_UNIVERSAL_TIME_OFFSET(8,0,.AHEAD.);
#489=LOCAL_TIME(10,58,5.1E1,#488);
#490=DATE_AND_TIME(#487,#489);
#491=APPROVAL_DATE_TIME(#490,#485);
#492=DATE_TIME_ROLE('creation_date');
#493=CC_DESIGN_DATE_AND_TIME_ASSIGNMENT(#490,#492,(#475));
#494=DATE_TIME_ROLE('classification_date');
#495=CC_DESIGN_DATE_AND_TIME_ASSIGNMENT(#490,#494,(#482));
#496=PERSON('UNSPECIFIED','UNSPECIFIED',$,$,$,$);
#497=ORGANIZATION('UNSPECIFIED','UNSPECIFIED','UNSPECIFIED');
#498=PERSON_AND_ORGANIZATION(#496,#497);
#499=APPROVAL_ROLE('approver');
#500=APPROVAL_PERSON_ORGANIZATION(#498,#485,#499);
#501=PERSON_AND_ORGANIZATION_ROLE('creator');
#502=CC_DESIGN_PERSON_AND_ORGANIZATION_ASSIGNMENT(#498,#501,(#474,#475));
#503=PERSON_AND_ORGANIZATION_ROLE('design_supplier');
#504=CC_DESIGN_PERSON_AND_ORGANIZATION_ASSIGNMENT(#498,#503,(#474));
#505=PERSON_AND_ORGANIZATION_ROLE('classification_officer');
#506=CC_DESIGN_PERSON_AND_ORGANIZATION_ASSIGNMENT(#498,#505,(#482));
#507=PERSON_AND_ORGANIZATION_ROLE('design_owner');
#508=CC_DESIGN_PERSON_AND_ORGANIZATION_ASSIGNMENT(#498,#507,(#473));
#22=CIRCLE('',#21,6.E0);
#27=CIRCLE('',#26,6.E0);
#32=CIRCLE('',#31,8.E0);
#37=CIRCLE('',#36,8.E0);
#42=CIRCLE('',#41,5.E0);
#47=CIRCLE('',#46,5.E0);
#52=CIRCLE('',#51,1.6E1);
#57=CIRCLE('',#56,1.6E1);
#62=CIRCLE('',#61,6.E0);
#67=CIRCLE('',#66,6.E0);
#80=CIRCLE('',#79,8.E0);
#85=CIRCLE('',#84,8.E0);
#98=CIRCLE('',#97,5.E0);
#103=CIRCLE('',#102,5.E0);
#108=CIRCLE('',#107,1.6E1);
#113=CIRCLE('',#112,1.6E1);
#215=EDGE_CURVE('',#169,#164,#5,.T.);
#217=EDGE_CURVE('',#168,#169,#9,.T.);
#219=EDGE_CURVE('',#165,#168,#13,.T.);
#221=EDGE_CURVE('',#164,#165,#17,.T.);
#232=EDGE_CURVE('',#164,#172,#153,.T.);
#234=EDGE_CURVE('',#172,#177,#141,.T.);
#236=EDGE_CURVE('',#177,#169,#133,.T.);
#240=EDGE_CURVE('',#204,#208,#32,.T.);
#242=EDGE_CURVE('',#208,#204,#37,.T.);
#246=EDGE_CURVE('',#196,#200,#42,.T.);
#248=EDGE_CURVE('',#200,#196,#47,.T.);
#252=EDGE_CURVE('',#188,#192,#52,.T.);
#254=EDGE_CURVE('',#192,#188,#57,.T.);
#258=EDGE_CURVE('',#180,#184,#22,.T.);
#260=EDGE_CURVE('',#184,#180,#27,.T.);
#270=EDGE_CURVE('',#185,#181,#67,.T.);
#272=EDGE_CURVE('',#180,#181,#75,.T.);
#275=EDGE_CURVE('',#184,#185,#71,.T.);
#285=EDGE_CURVE('',#181,#185,#62,.T.);
#308=EDGE_CURVE('',#209,#205,#85,.T.);
#310=EDGE_CURVE('',#204,#205,#93,.T.);
#313=EDGE_CURVE('',#208,#209,#89,.T.);
#323=EDGE_CURVE('',#205,#209,#80,.T.);
#346=EDGE_CURVE('',#201,#197,#103,.T.);
#348=EDGE_CURVE('',#196,#197,#121,.T.);
#351=EDGE_CURVE('',#200,#201,#117,.T.);
#362=EDGE_CURVE('',#168,#175,#137,.T.);
#364=EDGE_CURVE('',#175,#173,#145,.T.);
#366=EDGE_CURVE('',#173,#165,#157,.T.);
#370=EDGE_CURVE('',#189,#193,#108,.T.);
#372=EDGE_CURVE('',#193,#189,#113,.T.);
#376=EDGE_CURVE('',#197,#201,#98,.T.);
#400=EDGE_CURVE('',#192,#193,#125,.T.);
#403=EDGE_CURVE('',#188,#189,#129,.T.);
#426=EDGE_CURVE('',#177,#175,#149,.T.);
#439=EDGE_CURVE('',#172,#173,#161,.T.);
#458=CLOSED_SHELL('',(#225,#264,#279,#290,#302,#317,#328,#340,#355,#381,#393,
#407,#419,#432,#445,#457));
#459=MANIFOLD_SOLID_BREP('',#458);
#460=(LENGTH_UNIT()NAMED_UNIT(*)SI_UNIT(.MILLI.,.METRE.));
#462=(NAMED_UNIT(*)PLANE_ANGLE_UNIT()SI_UNIT($,.RADIAN.));
#465=(NAMED_UNIT(*)SI_UNIT($,.STERADIAN.)SOLID_ANGLE_UNIT());
#468=ADVANCED_BREP_SHAPE_REPRESENTATION('',(#459),#467);
#475=PRODUCT_DEFINITION('design','',#474,#471);
#476=PRODUCT_DEFINITION_SHAPE('','SHAPE FOR 20251201_105821_H1_PRT.',#475);
#477=SHAPE_DEFINITION_REPRESENTATION(#476,#468);
ENDSEC;
END-ISO-10303-21;
